ISO-10303-21;
HEADER;
/* Generated by software containing ST-Developer
 * from STEP Tools, Inc. (www.steptools.com) 
 */

FILE_DESCRIPTION(
/* description */ ('Gleitleiste-S GKF'),
/* implementation_level */ '2;1');

FILE_NAME(
/* name */ '\\\\fileserver\\Daten2\\STEP Daten fuer PIM\\290726-1.step',

/* time_stamp */ '2021-09-06T08:48:48+02:00',
/* author */ ('MuellerJ'),
/* organization */ (''),
/* preprocessor_version */ 'ST-DEVELOPER v18.1',
/* originating_system */ 'Autodesk Inventor 2021',
/* authorisation */ '');

FILE_SCHEMA (('AUTOMOTIVE_DESIGN { 1 0 10303 214 3 1 1 }'));
ENDSEC;

DATA;
#10=MECHANICAL_DESIGN_GEOMETRIC_PRESENTATION_REPRESENTATION('',(#13),#397);
#11=SHAPE_REPRESENTATION_RELATIONSHIP('SRR','None',#404,#12);
#12=ADVANCED_BREP_SHAPE_REPRESENTATION('',(#14),#396);
#13=STYLED_ITEM('',(#413),#14);
#14=MANIFOLD_SOLID_BREP('Volumenk\X\F6rper1',#223);
#15=CYLINDRICAL_SURFACE('',#250,5.);
#16=CYLINDRICAL_SURFACE('',#252,1.41588820720493);
#17=CYLINDRICAL_SURFACE('',#254,1.3);
#18=CYLINDRICAL_SURFACE('',#256,4.);
#19=CYLINDRICAL_SURFACE('',#258,2.2);
#20=FACE_OUTER_BOUND('',#32,.T.);
#21=FACE_OUTER_BOUND('',#33,.T.);
#22=FACE_OUTER_BOUND('',#34,.T.);
#23=FACE_OUTER_BOUND('',#35,.T.);
#24=FACE_OUTER_BOUND('',#36,.T.);
#25=FACE_OUTER_BOUND('',#37,.T.);
#26=FACE_OUTER_BOUND('',#38,.T.);
#27=FACE_OUTER_BOUND('',#39,.T.);
#28=FACE_OUTER_BOUND('',#40,.T.);
#29=FACE_OUTER_BOUND('',#41,.T.);
#30=FACE_OUTER_BOUND('',#42,.T.);
#31=FACE_OUTER_BOUND('',#43,.T.);
#32=EDGE_LOOP('',(#144,#145,#146,#147,#148,#149,#150,#151,#152,#153));
#33=EDGE_LOOP('',(#154,#155,#156,#157));
#34=EDGE_LOOP('',(#158,#159,#160,#161));
#35=EDGE_LOOP('',(#162,#163,#164,#165));
#36=EDGE_LOOP('',(#166,#167,#168,#169));
#37=EDGE_LOOP('',(#170,#171,#172,#173));
#38=EDGE_LOOP('',(#174,#175,#176,#177));
#39=EDGE_LOOP('',(#178,#179,#180,#181));
#40=EDGE_LOOP('',(#182,#183,#184,#185));
#41=EDGE_LOOP('',(#186,#187,#188,#189));
#42=EDGE_LOOP('',(#190,#191,#192,#193));
#43=EDGE_LOOP('',(#194,#195,#196,#197,#198,#199,#200,#201,#202,#203));
#44=CIRCLE('',#244,5.);
#45=CIRCLE('',#245,1.41588820720493);
#46=CIRCLE('',#246,1.3);
#47=CIRCLE('',#247,4.);
#48=CIRCLE('',#248,2.2);
#49=CIRCLE('',#251,5.);
#50=CIRCLE('',#253,1.41588820720493);
#51=CIRCLE('',#255,1.3);
#52=CIRCLE('',#257,4.);
#53=CIRCLE('',#259,2.2);
#54=LINE('',#335,#74);
#55=LINE('',#337,#75);
#56=LINE('',#339,#76);
#57=LINE('',#351,#77);
#58=LINE('',#352,#78);
#59=LINE('',#356,#79);
#60=LINE('',#357,#80);
#61=LINE('',#358,#81);
#62=LINE('',#362,#82);
#63=LINE('',#366,#83);
#64=LINE('',#370,#84);
#65=LINE('',#374,#85);
#66=LINE('',#378,#86);
#67=LINE('',#381,#87);
#68=LINE('',#382,#88);
#69=LINE('',#385,#89);
#70=LINE('',#386,#90);
#71=LINE('',#389,#91);
#72=LINE('',#390,#92);
#73=LINE('',#392,#93);
#74=VECTOR('',#269,10.);
#75=VECTOR('',#270,10.);
#76=VECTOR('',#271,10.);
#77=VECTOR('',#282,10.);
#78=VECTOR('',#283,10.);
#79=VECTOR('',#286,10.);
#80=VECTOR('',#287,10.);
#81=VECTOR('',#288,10.);
#82=VECTOR('',#293,10.);
#83=VECTOR('',#298,10.);
#84=VECTOR('',#303,10.);
#85=VECTOR('',#308,10.);
#86=VECTOR('',#313,10.);
#87=VECTOR('',#316,10.);
#88=VECTOR('',#317,10.);
#89=VECTOR('',#320,10.);
#90=VECTOR('',#321,10.);
#91=VECTOR('',#324,10.);
#92=VECTOR('',#325,10.);
#93=VECTOR('',#328,10.);
#94=VERTEX_POINT('',#333);
#95=VERTEX_POINT('',#334);
#96=VERTEX_POINT('',#336);
#97=VERTEX_POINT('',#338);
#98=VERTEX_POINT('',#340);
#99=VERTEX_POINT('',#342);
#100=VERTEX_POINT('',#344);
#101=VERTEX_POINT('',#346);
#102=VERTEX_POINT('',#348);
#103=VERTEX_POINT('',#350);
#104=VERTEX_POINT('',#354);
#105=VERTEX_POINT('',#355);
#106=VERTEX_POINT('',#360);
#107=VERTEX_POINT('',#364);
#108=VERTEX_POINT('',#368);
#109=VERTEX_POINT('',#372);
#110=VERTEX_POINT('',#376);
#111=VERTEX_POINT('',#380);
#112=VERTEX_POINT('',#384);
#113=VERTEX_POINT('',#388);
#114=EDGE_CURVE('',#94,#95,#54,.T.);
#115=EDGE_CURVE('',#96,#94,#55,.T.);
#116=EDGE_CURVE('',#97,#96,#56,.T.);
#117=EDGE_CURVE('',#98,#97,#44,.T.);
#118=EDGE_CURVE('',#99,#98,#45,.T.);
#119=EDGE_CURVE('',#100,#99,#46,.T.);
#120=EDGE_CURVE('',#101,#100,#47,.T.);
#121=EDGE_CURVE('',#102,#101,#48,.T.);
#122=EDGE_CURVE('',#103,#102,#57,.T.);
#123=EDGE_CURVE('',#95,#103,#58,.T.);
#124=EDGE_CURVE('',#104,#105,#59,.T.);
#125=EDGE_CURVE('',#97,#105,#60,.T.);
#126=EDGE_CURVE('',#104,#96,#61,.T.);
#127=EDGE_CURVE('',#105,#106,#49,.T.);
#128=EDGE_CURVE('',#98,#106,#62,.T.);
#129=EDGE_CURVE('',#106,#107,#50,.T.);
#130=EDGE_CURVE('',#99,#107,#63,.T.);
#131=EDGE_CURVE('',#107,#108,#51,.T.);
#132=EDGE_CURVE('',#100,#108,#64,.T.);
#133=EDGE_CURVE('',#108,#109,#52,.T.);
#134=EDGE_CURVE('',#101,#109,#65,.T.);
#135=EDGE_CURVE('',#109,#110,#53,.T.);
#136=EDGE_CURVE('',#102,#110,#66,.T.);
#137=EDGE_CURVE('',#110,#111,#67,.T.);
#138=EDGE_CURVE('',#103,#111,#68,.T.);
#139=EDGE_CURVE('',#111,#112,#69,.T.);
#140=EDGE_CURVE('',#95,#112,#70,.T.);
#141=EDGE_CURVE('',#112,#113,#71,.T.);
#142=EDGE_CURVE('',#94,#113,#72,.T.);
#143=EDGE_CURVE('',#113,#104,#73,.T.);
#144=ORIENTED_EDGE('',*,*,#114,.F.);
#145=ORIENTED_EDGE('',*,*,#115,.F.);
#146=ORIENTED_EDGE('',*,*,#116,.F.);
#147=ORIENTED_EDGE('',*,*,#117,.F.);
#148=ORIENTED_EDGE('',*,*,#118,.F.);
#149=ORIENTED_EDGE('',*,*,#119,.F.);
#150=ORIENTED_EDGE('',*,*,#120,.F.);
#151=ORIENTED_EDGE('',*,*,#121,.F.);
#152=ORIENTED_EDGE('',*,*,#122,.F.);
#153=ORIENTED_EDGE('',*,*,#123,.F.);
#154=ORIENTED_EDGE('',*,*,#124,.T.);
#155=ORIENTED_EDGE('',*,*,#125,.F.);
#156=ORIENTED_EDGE('',*,*,#116,.T.);
#157=ORIENTED_EDGE('',*,*,#126,.F.);
#158=ORIENTED_EDGE('',*,*,#127,.T.);
#159=ORIENTED_EDGE('',*,*,#128,.F.);
#160=ORIENTED_EDGE('',*,*,#117,.T.);
#161=ORIENTED_EDGE('',*,*,#125,.T.);
#162=ORIENTED_EDGE('',*,*,#129,.T.);
#163=ORIENTED_EDGE('',*,*,#130,.F.);
#164=ORIENTED_EDGE('',*,*,#118,.T.);
#165=ORIENTED_EDGE('',*,*,#128,.T.);
#166=ORIENTED_EDGE('',*,*,#131,.T.);
#167=ORIENTED_EDGE('',*,*,#132,.F.);
#168=ORIENTED_EDGE('',*,*,#119,.T.);
#169=ORIENTED_EDGE('',*,*,#130,.T.);
#170=ORIENTED_EDGE('',*,*,#133,.T.);
#171=ORIENTED_EDGE('',*,*,#134,.F.);
#172=ORIENTED_EDGE('',*,*,#120,.T.);
#173=ORIENTED_EDGE('',*,*,#132,.T.);
#174=ORIENTED_EDGE('',*,*,#135,.T.);
#175=ORIENTED_EDGE('',*,*,#136,.F.);
#176=ORIENTED_EDGE('',*,*,#121,.T.);
#177=ORIENTED_EDGE('',*,*,#134,.T.);
#178=ORIENTED_EDGE('',*,*,#137,.T.);
#179=ORIENTED_EDGE('',*,*,#138,.F.);
#180=ORIENTED_EDGE('',*,*,#122,.T.);
#181=ORIENTED_EDGE('',*,*,#136,.T.);
#182=ORIENTED_EDGE('',*,*,#139,.T.);
#183=ORIENTED_EDGE('',*,*,#140,.F.);
#184=ORIENTED_EDGE('',*,*,#123,.T.);
#185=ORIENTED_EDGE('',*,*,#138,.T.);
#186=ORIENTED_EDGE('',*,*,#141,.T.);
#187=ORIENTED_EDGE('',*,*,#142,.F.);
#188=ORIENTED_EDGE('',*,*,#114,.T.);
#189=ORIENTED_EDGE('',*,*,#140,.T.);
#190=ORIENTED_EDGE('',*,*,#143,.T.);
#191=ORIENTED_EDGE('',*,*,#126,.T.);
#192=ORIENTED_EDGE('',*,*,#115,.T.);
#193=ORIENTED_EDGE('',*,*,#142,.T.);
#194=ORIENTED_EDGE('',*,*,#124,.F.);
#195=ORIENTED_EDGE('',*,*,#143,.F.);
#196=ORIENTED_EDGE('',*,*,#141,.F.);
#197=ORIENTED_EDGE('',*,*,#139,.F.);
#198=ORIENTED_EDGE('',*,*,#137,.F.);
#199=ORIENTED_EDGE('',*,*,#135,.F.);
#200=ORIENTED_EDGE('',*,*,#133,.F.);
#201=ORIENTED_EDGE('',*,*,#131,.F.);
#202=ORIENTED_EDGE('',*,*,#129,.F.);
#203=ORIENTED_EDGE('',*,*,#127,.F.);
#204=PLANE('',#243);
#205=PLANE('',#249);
#206=PLANE('',#260);
#207=PLANE('',#261);
#208=PLANE('',#262);
#209=PLANE('',#263);
#210=PLANE('',#264);
#211=ADVANCED_FACE('',(#20),#204,.F.);
#212=ADVANCED_FACE('',(#21),#205,.T.);
#213=ADVANCED_FACE('',(#22),#15,.T.);
#214=ADVANCED_FACE('',(#23),#16,.F.);
#215=ADVANCED_FACE('',(#24),#17,.T.);
#216=ADVANCED_FACE('',(#25),#18,.T.);
#217=ADVANCED_FACE('',(#26),#19,.F.);
#218=ADVANCED_FACE('',(#27),#206,.T.);
#219=ADVANCED_FACE('',(#28),#207,.T.);
#220=ADVANCED_FACE('',(#29),#208,.T.);
#221=ADVANCED_FACE('',(#30),#209,.T.);
#222=ADVANCED_FACE('',(#31),#210,.T.);
#223=CLOSED_SHELL('',(#211,#212,#213,#214,#215,#216,#217,#218,#219,#220,
#221,#222));
#224=DERIVED_UNIT_ELEMENT(#226,1.);
#225=DERIVED_UNIT_ELEMENT(#399,-3.);
#226=(
MASS_UNIT()
NAMED_UNIT(*)
SI_UNIT($,.GRAM.)
);
#227=DERIVED_UNIT((#224,#225));
#228=MEASURE_REPRESENTATION_ITEM('density measure',
POSITIVE_RATIO_MEASURE(0.94),#227);
#229=PROPERTY_DEFINITION_REPRESENTATION(#234,#231);
#230=PROPERTY_DEFINITION_REPRESENTATION(#235,#232);
#231=REPRESENTATION('material name',(#233),#396);
#232=REPRESENTATION('density',(#228),#396);
#233=DESCRIPTIVE_REPRESENTATION_ITEM('Nolu-S','Nolu-S');
#234=PROPERTY_DEFINITION('material property','material name',#406);
#235=PROPERTY_DEFINITION('material property','density of part',#406);
#236=DATE_TIME_ROLE('creation_date');
#237=APPLIED_DATE_AND_TIME_ASSIGNMENT(#238,#236,(#406));
#238=DATE_AND_TIME(#239,#240);
#239=CALENDAR_DATE(2010,18,3);
#240=LOCAL_TIME(0,0,0.,#241);
#241=COORDINATED_UNIVERSAL_TIME_OFFSET(0,0,.BEHIND.);
#242=AXIS2_PLACEMENT_3D('placement',#331,#265,#266);
#243=AXIS2_PLACEMENT_3D('',#332,#267,#268);
#244=AXIS2_PLACEMENT_3D('',#341,#272,#273);
#245=AXIS2_PLACEMENT_3D('',#343,#274,#275);
#246=AXIS2_PLACEMENT_3D('',#345,#276,#277);
#247=AXIS2_PLACEMENT_3D('',#347,#278,#279);
#248=AXIS2_PLACEMENT_3D('',#349,#280,#281);
#249=AXIS2_PLACEMENT_3D('',#353,#284,#285);
#250=AXIS2_PLACEMENT_3D('',#359,#289,#290);
#251=AXIS2_PLACEMENT_3D('',#361,#291,#292);
#252=AXIS2_PLACEMENT_3D('',#363,#294,#295);
#253=AXIS2_PLACEMENT_3D('',#365,#296,#297);
#254=AXIS2_PLACEMENT_3D('',#367,#299,#300);
#255=AXIS2_PLACEMENT_3D('',#369,#301,#302);
#256=AXIS2_PLACEMENT_3D('',#371,#304,#305);
#257=AXIS2_PLACEMENT_3D('',#373,#306,#307);
#258=AXIS2_PLACEMENT_3D('',#375,#309,#310);
#259=AXIS2_PLACEMENT_3D('',#377,#311,#312);
#260=AXIS2_PLACEMENT_3D('',#379,#314,#315);
#261=AXIS2_PLACEMENT_3D('',#383,#318,#319);
#262=AXIS2_PLACEMENT_3D('',#387,#322,#323);
#263=AXIS2_PLACEMENT_3D('',#391,#326,#327);
#264=AXIS2_PLACEMENT_3D('',#393,#329,#330);
#265=DIRECTION('axis',(0.,0.,1.));
#266=DIRECTION('refdir',(1.,0.,0.));
#267=DIRECTION('center_axis',(0.,0.,1.));
#268=DIRECTION('ref_axis',(1.,0.,0.));
#269=DIRECTION('',(7.40148683083438E-16,1.,0.));
#270=DIRECTION('',(1.,1.32169407693471E-16,0.));
#271=DIRECTION('',(-2.22044604925031E-16,-1.,0.));
#272=DIRECTION('center_axis',(0.,0.,1.));
#273=DIRECTION('ref_axis',(0.81877084646634,0.57412045859453,0.));
#274=DIRECTION('center_axis',(0.,0.,-1.));
#275=DIRECTION('ref_axis',(0.81877084646634,0.57412045859453,0.));
#276=DIRECTION('center_axis',(0.,0.,1.));
#277=DIRECTION('ref_axis',(0.787673782934315,-0.61609253499612,0.));
#278=DIRECTION('center_axis',(0.,0.,1.));
#279=DIRECTION('ref_axis',(-0.825422037543482,-0.564516129032259,0.));
#280=DIRECTION('center_axis',(0.,0.,-1.));
#281=DIRECTION('ref_axis',(-0.825422037543482,-0.564516129032259,0.));
#282=DIRECTION('',(0.,1.,0.));
#283=DIRECTION('',(-1.,3.66007590535766E-16,0.));
#284=DIRECTION('center_axis',(-1.,2.22044604925031E-16,0.));
#285=DIRECTION('ref_axis',(0.,0.,1.));
#286=DIRECTION('',(2.22044604925031E-16,1.,0.));
#287=DIRECTION('',(0.,0.,1.));
#288=DIRECTION('',(0.,0.,-1.));
#289=DIRECTION('center_axis',(0.,0.,1.));
#290=DIRECTION('ref_axis',(0.81877084646634,0.57412045859453,0.));
#291=DIRECTION('center_axis',(0.,0.,-1.));
#292=DIRECTION('ref_axis',(0.81877084646634,0.57412045859453,0.));
#293=DIRECTION('',(0.,0.,1.));
#294=DIRECTION('center_axis',(0.,0.,1.));
#295=DIRECTION('ref_axis',(0.81877084646634,0.57412045859453,0.));
#296=DIRECTION('center_axis',(0.,0.,1.));
#297=DIRECTION('ref_axis',(0.81877084646634,0.57412045859453,0.));
#298=DIRECTION('',(0.,0.,1.));
#299=DIRECTION('center_axis',(0.,0.,1.));
#300=DIRECTION('ref_axis',(0.787673782934315,-0.61609253499612,0.));
#301=DIRECTION('center_axis',(0.,0.,-1.));
#302=DIRECTION('ref_axis',(0.787673782934315,-0.61609253499612,0.));
#303=DIRECTION('',(0.,0.,1.));
#304=DIRECTION('center_axis',(0.,0.,1.));
#305=DIRECTION('ref_axis',(-0.825422037543482,-0.564516129032259,0.));
#306=DIRECTION('center_axis',(0.,0.,-1.));
#307=DIRECTION('ref_axis',(-0.825422037543482,-0.564516129032259,0.));
#308=DIRECTION('',(0.,0.,1.));
#309=DIRECTION('center_axis',(0.,0.,1.));
#310=DIRECTION('ref_axis',(-0.825422037543482,-0.564516129032259,0.));
#311=DIRECTION('center_axis',(0.,0.,1.));
#312=DIRECTION('ref_axis',(-0.825422037543482,-0.564516129032259,0.));
#313=DIRECTION('',(0.,0.,1.));
#314=DIRECTION('center_axis',(1.,0.,0.));
#315=DIRECTION('ref_axis',(0.,0.,-1.));
#316=DIRECTION('',(0.,-1.,0.));
#317=DIRECTION('',(0.,0.,1.));
#318=DIRECTION('center_axis',(3.66007590535766E-16,1.,0.));
#319=DIRECTION('ref_axis',(0.,0.,1.));
#320=DIRECTION('',(1.,-3.66007590535766E-16,0.));
#321=DIRECTION('',(0.,0.,1.));
#322=DIRECTION('center_axis',(1.,-7.40148683083438E-16,0.));
#323=DIRECTION('ref_axis',(0.,0.,-1.));
#324=DIRECTION('',(-7.40148683083438E-16,-1.,0.));
#325=DIRECTION('',(0.,0.,1.));
#326=DIRECTION('center_axis',(1.32169407693471E-16,-1.,0.));
#327=DIRECTION('ref_axis',(0.,0.,-1.));
#328=DIRECTION('',(-1.,-1.32169407693471E-16,0.));
#329=DIRECTION('center_axis',(0.,0.,1.));
#330=DIRECTION('ref_axis',(1.,0.,0.));
#331=CARTESIAN_POINT('',(0.,0.,0.));
#332=CARTESIAN_POINT('Origin',(7.5911546752801,2.29510474595749,-5.));
#333=CARTESIAN_POINT('',(19.6,-1.5,-5.));
#334=CARTESIAN_POINT('',(19.6,1.5,-5.));
#335=CARTESIAN_POINT('',(19.6,-1.5,-5.));
#336=CARTESIAN_POINT('',(-1.4,-1.5,-5.));
#337=CARTESIAN_POINT('',(-1.4,-1.5,-5.));
#338=CARTESIAN_POINT('',(-1.4,3.5,-5.));
#339=CARTESIAN_POINT('',(-1.4,3.5,-5.));
#340=CARTESIAN_POINT('',(7.6938542323317,6.37060229297265,-5.));
#341=CARTESIAN_POINT('Origin',(3.6,3.5,-5.));
#342=CARTESIAN_POINT('',(9.89122160947429,6.22061647135588,-5.));
#343=CARTESIAN_POINT('Origin',(8.85314221824659,7.18349267981173,-5.));
#344=CARTESIAN_POINT('',(11.8683117645069,4.53562986001552,-5.));
#345=CARTESIAN_POINT('Origin',(10.8443358466922,5.33655015551048,-5.));
#346=CARTESIAN_POINT('',(5.41592848259566,4.74193548387097,-5.));
#347=CARTESIAN_POINT('Origin',(8.71761663276959,7.,-5.));
#348=CARTESIAN_POINT('',(1.4,3.5,-5.));
#349=CARTESIAN_POINT('Origin',(3.6,3.5,-5.));
#350=CARTESIAN_POINT('',(1.4,1.50000000000001,-5.));
#351=CARTESIAN_POINT('',(1.4,1.50000000000001,-5.));
#352=CARTESIAN_POINT('',(19.6,1.5,-5.));
#353=CARTESIAN_POINT('Origin',(-1.4,-1.5,0.));
#354=CARTESIAN_POINT('',(-1.4,-1.5,5.));
#355=CARTESIAN_POINT('',(-1.4,3.5,5.));
#356=CARTESIAN_POINT('',(-1.4,3.5,5.));
#357=CARTESIAN_POINT('',(-1.4,3.5,0.));
#358=CARTESIAN_POINT('',(-1.4,-1.5,0.));
#359=CARTESIAN_POINT('Origin',(3.6,3.5,0.));
#360=CARTESIAN_POINT('',(7.6938542323317,6.37060229297265,5.));
#361=CARTESIAN_POINT('Origin',(3.6,3.5,5.));
#362=CARTESIAN_POINT('',(7.6938542323317,6.37060229297265,0.));
#363=CARTESIAN_POINT('Origin',(8.85314221824659,7.18349267981173,0.));
#364=CARTESIAN_POINT('',(9.89122160947429,6.22061647135588,5.));
#365=CARTESIAN_POINT('Origin',(8.85314221824659,7.18349267981173,5.));
#366=CARTESIAN_POINT('',(9.89122160947429,6.22061647135588,0.));
#367=CARTESIAN_POINT('Origin',(10.8443358466922,5.33655015551048,0.));
#368=CARTESIAN_POINT('',(11.8683117645069,4.53562986001552,5.));
#369=CARTESIAN_POINT('Origin',(10.8443358466922,5.33655015551048,5.));
#370=CARTESIAN_POINT('',(11.8683117645069,4.53562986001552,0.));
#371=CARTESIAN_POINT('Origin',(8.71761663276959,7.,0.));
#372=CARTESIAN_POINT('',(5.41592848259566,4.74193548387097,5.));
#373=CARTESIAN_POINT('Origin',(8.71761663276959,7.,5.));
#374=CARTESIAN_POINT('',(5.41592848259566,4.74193548387097,0.));
#375=CARTESIAN_POINT('Origin',(3.6,3.5,0.));
#376=CARTESIAN_POINT('',(1.4,3.5,5.));
#377=CARTESIAN_POINT('Origin',(3.6,3.5,5.));
#378=CARTESIAN_POINT('',(1.4,3.5,0.));
#379=CARTESIAN_POINT('Origin',(1.4,3.5,0.));
#380=CARTESIAN_POINT('',(1.4,1.50000000000001,5.));
#381=CARTESIAN_POINT('',(1.4,1.50000000000001,5.));
#382=CARTESIAN_POINT('',(1.4,1.50000000000001,0.));
#383=CARTESIAN_POINT('Origin',(1.4,1.50000000000001,0.));
#384=CARTESIAN_POINT('',(19.6,1.5,5.));
#385=CARTESIAN_POINT('',(19.6,1.5,5.));
#386=CARTESIAN_POINT('',(19.6,1.5,0.));
#387=CARTESIAN_POINT('Origin',(19.6,1.5,0.));
#388=CARTESIAN_POINT('',(19.6,-1.5,5.));
#389=CARTESIAN_POINT('',(19.6,-1.5,5.));
#390=CARTESIAN_POINT('',(19.6,-1.5,0.));
#391=CARTESIAN_POINT('Origin',(19.6,-1.5,0.));
#392=CARTESIAN_POINT('',(-1.4,-1.5,5.));
#393=CARTESIAN_POINT('Origin',(7.5911546752801,2.29510474595749,5.));
#394=UNCERTAINTY_MEASURE_WITH_UNIT(LENGTH_MEASURE(0.01),#398,
'DISTANCE_ACCURACY_VALUE',
'Maximum model space distance between geometric entities at asserted c
onnectivities');
#395=UNCERTAINTY_MEASURE_WITH_UNIT(LENGTH_MEASURE(0.01),#398,
'DISTANCE_ACCURACY_VALUE',
'Maximum model space distance between geometric entities at asserted c
onnectivities');
#396=(
GEOMETRIC_REPRESENTATION_CONTEXT(3)
GLOBAL_UNCERTAINTY_ASSIGNED_CONTEXT((#394))
GLOBAL_UNIT_ASSIGNED_CONTEXT((#398,#400,#401))
REPRESENTATION_CONTEXT('','3D')
);
#397=(
GEOMETRIC_REPRESENTATION_CONTEXT(3)
GLOBAL_UNCERTAINTY_ASSIGNED_CONTEXT((#395))
GLOBAL_UNIT_ASSIGNED_CONTEXT((#398,#400,#401))
REPRESENTATION_CONTEXT('','3D')
);
#398=(
LENGTH_UNIT()
NAMED_UNIT(*)
SI_UNIT(.MILLI.,.METRE.)
);
#399=(
LENGTH_UNIT()
NAMED_UNIT(*)
SI_UNIT(.CENTI.,.METRE.)
);
#400=(
NAMED_UNIT(*)
PLANE_ANGLE_UNIT()
SI_UNIT($,.RADIAN.)
);
#401=(
NAMED_UNIT(*)
SI_UNIT($,.STERADIAN.)
SOLID_ANGLE_UNIT()
);
#402=SHAPE_DEFINITION_REPRESENTATION(#403,#404);
#403=PRODUCT_DEFINITION_SHAPE('',$,#406);
#404=SHAPE_REPRESENTATION('',(#242),#396);
#405=PRODUCT_DEFINITION_CONTEXT('part definition',#410,'design');
#406=PRODUCT_DEFINITION('leer','00026214',#407,#405);
#407=PRODUCT_DEFINITION_FORMATION('01',$,#412);
#408=PRODUCT_RELATED_PRODUCT_CATEGORY('00026214','00026214',(#412));
#409=APPLICATION_PROTOCOL_DEFINITION('international standard',
'automotive_design',2009,#410);
#410=APPLICATION_CONTEXT(
'Core Data for Automotive Mechanical Design Process');
#411=PRODUCT_CONTEXT('part definition',#410,'mechanical');
#412=PRODUCT('leer','00026214','Gleitleiste-S GKF',(#411));
#413=PRESENTATION_STYLE_ASSIGNMENT((#414));
#414=SURFACE_STYLE_USAGE(.BOTH.,#417);
#415=SURFACE_STYLE_RENDERING_WITH_PROPERTIES($,#421,(#416));
#416=SURFACE_STYLE_TRANSPARENT(0.);
#417=SURFACE_SIDE_STYLE('',(#418,#415));
#418=SURFACE_STYLE_FILL_AREA(#419);
#419=FILL_AREA_STYLE('',(#420));
#420=FILL_AREA_STYLE_COLOUR('',#421);
#421=COLOUR_RGB('',0.356862745098039,0.384313725490196,0.415686274509804);
ENDSEC;
END-ISO-10303-21;
