ISO-10303-21;
HEADER;
/* Generated by software containing ST-Developer
 * from STEP Tools, Inc. (www.steptools.com) 
 */

FILE_DESCRIPTION(
/* description */ ('Schmierfilz LR 16'),
/* implementation_level */ '2;1');

FILE_NAME(
/* name */ 
'\\\\crossprint\\CrossbaseMedia\\daten_aus_vault\\ZEI_CAD_280816-0-REV
00_#SALL_#AIN_#V1.step',
/* time_stamp */ '2022-09-15T21:53:01+02:00',
/* author */ ('MiniTec'),
/* organization */ ('MiniTec GmbH & Co.KG'),
/* preprocessor_version */ 'ST-DEVELOPER v18.1',
/* originating_system */ 'Autodesk Inventor 2021',
/* authorisation */ '');

FILE_SCHEMA (('CONFIG_CONTROL_DESIGN'));
ENDSEC;

DATA;
#10=MECHANICAL_DESIGN_GEOMETRIC_PRESENTATION_REPRESENTATION('',(#13),#389);
#11=SHAPE_REPRESENTATION_RELATIONSHIP('SRR','None',#396,#12);
#12=ADVANCED_BREP_SHAPE_REPRESENTATION('',(#14),#388);
#13=STYLED_ITEM('',(#405),#14);
#14=MANIFOLD_SOLID_BREP('Volumenk\X\F6rper1',#231);
#15=CYLINDRICAL_SURFACE('',#254,8.);
#16=FACE_OUTER_BOUND('',#28,.T.);
#17=FACE_OUTER_BOUND('',#29,.T.);
#18=FACE_OUTER_BOUND('',#30,.T.);
#19=FACE_OUTER_BOUND('',#31,.T.);
#20=FACE_OUTER_BOUND('',#32,.T.);
#21=FACE_OUTER_BOUND('',#33,.T.);
#22=FACE_OUTER_BOUND('',#34,.T.);
#23=FACE_OUTER_BOUND('',#35,.T.);
#24=FACE_OUTER_BOUND('',#36,.T.);
#25=FACE_OUTER_BOUND('',#37,.T.);
#26=FACE_OUTER_BOUND('',#38,.T.);
#27=FACE_OUTER_BOUND('',#39,.T.);
#28=EDGE_LOOP('',(#148,#149,#150,#151,#152,#153,#154,#155,#156,#157));
#29=EDGE_LOOP('',(#158,#159,#160,#161));
#30=EDGE_LOOP('',(#162,#163,#164,#165));
#31=EDGE_LOOP('',(#166,#167,#168,#169));
#32=EDGE_LOOP('',(#170,#171,#172,#173));
#33=EDGE_LOOP('',(#174,#175,#176,#177));
#34=EDGE_LOOP('',(#178,#179,#180,#181));
#35=EDGE_LOOP('',(#182,#183,#184,#185));
#36=EDGE_LOOP('',(#186,#187,#188,#189));
#37=EDGE_LOOP('',(#190,#191,#192,#193));
#38=EDGE_LOOP('',(#194,#195,#196,#197));
#39=EDGE_LOOP('',(#198,#199,#200,#201,#202,#203,#204,#205,#206,#207));
#40=CIRCLE('',#252,8.);
#41=CIRCLE('',#255,8.);
#42=LINE('',#327,#70);
#43=LINE('',#329,#71);
#44=LINE('',#331,#72);
#45=LINE('',#335,#73);
#46=LINE('',#337,#74);
#47=LINE('',#339,#75);
#48=LINE('',#341,#76);
#49=LINE('',#343,#77);
#50=LINE('',#344,#78);
#51=LINE('',#348,#79);
#52=LINE('',#349,#80);
#53=LINE('',#350,#81);
#54=LINE('',#354,#82);
#55=LINE('',#357,#83);
#56=LINE('',#358,#84);
#57=LINE('',#361,#85);
#58=LINE('',#362,#86);
#59=LINE('',#365,#87);
#60=LINE('',#366,#88);
#61=LINE('',#369,#89);
#62=LINE('',#370,#90);
#63=LINE('',#373,#91);
#64=LINE('',#374,#92);
#65=LINE('',#377,#93);
#66=LINE('',#378,#94);
#67=LINE('',#381,#95);
#68=LINE('',#382,#96);
#69=LINE('',#384,#97);
#70=VECTOR('',#269,10.);
#71=VECTOR('',#270,10.);
#72=VECTOR('',#271,10.);
#73=VECTOR('',#274,10.);
#74=VECTOR('',#275,10.);
#75=VECTOR('',#276,10.);
#76=VECTOR('',#277,10.);
#77=VECTOR('',#278,10.);
#78=VECTOR('',#279,10.);
#79=VECTOR('',#282,10.);
#80=VECTOR('',#283,10.);
#81=VECTOR('',#284,10.);
#82=VECTOR('',#289,10.);
#83=VECTOR('',#292,10.);
#84=VECTOR('',#293,10.);
#85=VECTOR('',#296,10.);
#86=VECTOR('',#297,10.);
#87=VECTOR('',#300,10.);
#88=VECTOR('',#301,10.);
#89=VECTOR('',#304,10.);
#90=VECTOR('',#305,10.);
#91=VECTOR('',#308,10.);
#92=VECTOR('',#309,10.);
#93=VECTOR('',#312,10.);
#94=VECTOR('',#313,10.);
#95=VECTOR('',#316,10.);
#96=VECTOR('',#317,10.);
#97=VECTOR('',#320,10.);
#98=VERTEX_POINT('',#325);
#99=VERTEX_POINT('',#326);
#100=VERTEX_POINT('',#328);
#101=VERTEX_POINT('',#330);
#102=VERTEX_POINT('',#332);
#103=VERTEX_POINT('',#334);
#104=VERTEX_POINT('',#336);
#105=VERTEX_POINT('',#338);
#106=VERTEX_POINT('',#340);
#107=VERTEX_POINT('',#342);
#108=VERTEX_POINT('',#346);
#109=VERTEX_POINT('',#347);
#110=VERTEX_POINT('',#352);
#111=VERTEX_POINT('',#356);
#112=VERTEX_POINT('',#360);
#113=VERTEX_POINT('',#364);
#114=VERTEX_POINT('',#368);
#115=VERTEX_POINT('',#372);
#116=VERTEX_POINT('',#376);
#117=VERTEX_POINT('',#380);
#118=EDGE_CURVE('',#98,#99,#42,.T.);
#119=EDGE_CURVE('',#100,#98,#43,.T.);
#120=EDGE_CURVE('',#101,#100,#44,.T.);
#121=EDGE_CURVE('',#102,#101,#40,.T.);
#122=EDGE_CURVE('',#103,#102,#45,.T.);
#123=EDGE_CURVE('',#104,#103,#46,.T.);
#124=EDGE_CURVE('',#105,#104,#47,.T.);
#125=EDGE_CURVE('',#106,#105,#48,.T.);
#126=EDGE_CURVE('',#107,#106,#49,.T.);
#127=EDGE_CURVE('',#99,#107,#50,.T.);
#128=EDGE_CURVE('',#108,#109,#51,.T.);
#129=EDGE_CURVE('',#109,#101,#52,.T.);
#130=EDGE_CURVE('',#108,#100,#53,.T.);
#131=EDGE_CURVE('',#109,#110,#41,.T.);
#132=EDGE_CURVE('',#110,#102,#54,.T.);
#133=EDGE_CURVE('',#110,#111,#55,.T.);
#134=EDGE_CURVE('',#111,#103,#56,.T.);
#135=EDGE_CURVE('',#111,#112,#57,.T.);
#136=EDGE_CURVE('',#112,#104,#58,.T.);
#137=EDGE_CURVE('',#112,#113,#59,.T.);
#138=EDGE_CURVE('',#113,#105,#60,.T.);
#139=EDGE_CURVE('',#113,#114,#61,.T.);
#140=EDGE_CURVE('',#114,#106,#62,.T.);
#141=EDGE_CURVE('',#114,#115,#63,.T.);
#142=EDGE_CURVE('',#115,#107,#64,.T.);
#143=EDGE_CURVE('',#115,#116,#65,.T.);
#144=EDGE_CURVE('',#116,#99,#66,.T.);
#145=EDGE_CURVE('',#116,#117,#67,.T.);
#146=EDGE_CURVE('',#98,#117,#68,.T.);
#147=EDGE_CURVE('',#117,#108,#69,.T.);
#148=ORIENTED_EDGE('',*,*,#118,.F.);
#149=ORIENTED_EDGE('',*,*,#119,.F.);
#150=ORIENTED_EDGE('',*,*,#120,.F.);
#151=ORIENTED_EDGE('',*,*,#121,.F.);
#152=ORIENTED_EDGE('',*,*,#122,.F.);
#153=ORIENTED_EDGE('',*,*,#123,.F.);
#154=ORIENTED_EDGE('',*,*,#124,.F.);
#155=ORIENTED_EDGE('',*,*,#125,.F.);
#156=ORIENTED_EDGE('',*,*,#126,.F.);
#157=ORIENTED_EDGE('',*,*,#127,.F.);
#158=ORIENTED_EDGE('',*,*,#128,.T.);
#159=ORIENTED_EDGE('',*,*,#129,.T.);
#160=ORIENTED_EDGE('',*,*,#120,.T.);
#161=ORIENTED_EDGE('',*,*,#130,.F.);
#162=ORIENTED_EDGE('',*,*,#131,.T.);
#163=ORIENTED_EDGE('',*,*,#132,.T.);
#164=ORIENTED_EDGE('',*,*,#121,.T.);
#165=ORIENTED_EDGE('',*,*,#129,.F.);
#166=ORIENTED_EDGE('',*,*,#133,.T.);
#167=ORIENTED_EDGE('',*,*,#134,.T.);
#168=ORIENTED_EDGE('',*,*,#122,.T.);
#169=ORIENTED_EDGE('',*,*,#132,.F.);
#170=ORIENTED_EDGE('',*,*,#135,.T.);
#171=ORIENTED_EDGE('',*,*,#136,.T.);
#172=ORIENTED_EDGE('',*,*,#123,.T.);
#173=ORIENTED_EDGE('',*,*,#134,.F.);
#174=ORIENTED_EDGE('',*,*,#137,.T.);
#175=ORIENTED_EDGE('',*,*,#138,.T.);
#176=ORIENTED_EDGE('',*,*,#124,.T.);
#177=ORIENTED_EDGE('',*,*,#136,.F.);
#178=ORIENTED_EDGE('',*,*,#139,.T.);
#179=ORIENTED_EDGE('',*,*,#140,.T.);
#180=ORIENTED_EDGE('',*,*,#125,.T.);
#181=ORIENTED_EDGE('',*,*,#138,.F.);
#182=ORIENTED_EDGE('',*,*,#141,.T.);
#183=ORIENTED_EDGE('',*,*,#142,.T.);
#184=ORIENTED_EDGE('',*,*,#126,.T.);
#185=ORIENTED_EDGE('',*,*,#140,.F.);
#186=ORIENTED_EDGE('',*,*,#143,.T.);
#187=ORIENTED_EDGE('',*,*,#144,.T.);
#188=ORIENTED_EDGE('',*,*,#127,.T.);
#189=ORIENTED_EDGE('',*,*,#142,.F.);
#190=ORIENTED_EDGE('',*,*,#145,.T.);
#191=ORIENTED_EDGE('',*,*,#146,.F.);
#192=ORIENTED_EDGE('',*,*,#118,.T.);
#193=ORIENTED_EDGE('',*,*,#144,.F.);
#194=ORIENTED_EDGE('',*,*,#147,.T.);
#195=ORIENTED_EDGE('',*,*,#130,.T.);
#196=ORIENTED_EDGE('',*,*,#119,.T.);
#197=ORIENTED_EDGE('',*,*,#146,.T.);
#198=ORIENTED_EDGE('',*,*,#128,.F.);
#199=ORIENTED_EDGE('',*,*,#147,.F.);
#200=ORIENTED_EDGE('',*,*,#145,.F.);
#201=ORIENTED_EDGE('',*,*,#143,.F.);
#202=ORIENTED_EDGE('',*,*,#141,.F.);
#203=ORIENTED_EDGE('',*,*,#139,.F.);
#204=ORIENTED_EDGE('',*,*,#137,.F.);
#205=ORIENTED_EDGE('',*,*,#135,.F.);
#206=ORIENTED_EDGE('',*,*,#133,.F.);
#207=ORIENTED_EDGE('',*,*,#131,.F.);
#208=PLANE('',#251);
#209=PLANE('',#253);
#210=PLANE('',#256);
#211=PLANE('',#257);
#212=PLANE('',#258);
#213=PLANE('',#259);
#214=PLANE('',#260);
#215=PLANE('',#261);
#216=PLANE('',#262);
#217=PLANE('',#263);
#218=PLANE('',#264);
#219=ADVANCED_FACE('',(#16),#208,.F.);
#220=ADVANCED_FACE('',(#17),#209,.T.);
#221=ADVANCED_FACE('',(#18),#15,.F.);
#222=ADVANCED_FACE('',(#19),#210,.T.);
#223=ADVANCED_FACE('',(#20),#211,.T.);
#224=ADVANCED_FACE('',(#21),#212,.T.);
#225=ADVANCED_FACE('',(#22),#213,.T.);
#226=ADVANCED_FACE('',(#23),#214,.T.);
#227=ADVANCED_FACE('',(#24),#215,.T.);
#228=ADVANCED_FACE('',(#25),#216,.T.);
#229=ADVANCED_FACE('',(#26),#217,.T.);
#230=ADVANCED_FACE('',(#27),#218,.T.);
#231=CLOSED_SHELL('',(#219,#220,#221,#222,#223,#224,#225,#226,#227,#228,
#229,#230));
#232=DERIVED_UNIT_ELEMENT(#234,1.);
#233=DERIVED_UNIT_ELEMENT(#391,-3.);
#234=(
MASS_UNIT()
NAMED_UNIT(*)
SI_UNIT($,.GRAM.)
);
#235=DERIVED_UNIT((#232,#233));
#236=MEASURE_REPRESENTATION_ITEM('density measure',
POSITIVE_RATIO_MEASURE(4.7),#235);
#237=PROPERTY_DEFINITION_REPRESENTATION(#242,#239);
#238=PROPERTY_DEFINITION_REPRESENTATION(#243,#240);
#239=REPRESENTATION('material name',(#241),#388);
#240=REPRESENTATION('density',(#236),#388);
#241=DESCRIPTIVE_REPRESENTATION_ITEM('Filz','Filz');
#242=PROPERTY_DEFINITION('material property','material name',#398);
#243=PROPERTY_DEFINITION('material property','density of part',#398);
#244=DATE_TIME_ROLE('creation_date');
#245=CC_DESIGN_DATE_AND_TIME_ASSIGNMENT(#246,#244,(#398));
#246=DATE_AND_TIME(#247,#248);
#247=CALENDAR_DATE(2009,22,4);
#248=LOCAL_TIME(0,0,0.,#249);
#249=COORDINATED_UNIVERSAL_TIME_OFFSET(0,0,.BEHIND.);
#250=AXIS2_PLACEMENT_3D('placement',#323,#265,#266);
#251=AXIS2_PLACEMENT_3D('',#324,#267,#268);
#252=AXIS2_PLACEMENT_3D('',#333,#272,#273);
#253=AXIS2_PLACEMENT_3D('',#345,#280,#281);
#254=AXIS2_PLACEMENT_3D('',#351,#285,#286);
#255=AXIS2_PLACEMENT_3D('',#353,#287,#288);
#256=AXIS2_PLACEMENT_3D('',#355,#290,#291);
#257=AXIS2_PLACEMENT_3D('',#359,#294,#295);
#258=AXIS2_PLACEMENT_3D('',#363,#298,#299);
#259=AXIS2_PLACEMENT_3D('',#367,#302,#303);
#260=AXIS2_PLACEMENT_3D('',#371,#306,#307);
#261=AXIS2_PLACEMENT_3D('',#375,#310,#311);
#262=AXIS2_PLACEMENT_3D('',#379,#314,#315);
#263=AXIS2_PLACEMENT_3D('',#383,#318,#319);
#264=AXIS2_PLACEMENT_3D('',#385,#321,#322);
#265=DIRECTION('axis',(0.,0.,1.));
#266=DIRECTION('refdir',(1.,0.,0.));
#267=DIRECTION('center_axis',(0.,0.,1.));
#268=DIRECTION('ref_axis',(1.,0.,0.));
#269=DIRECTION('',(9.26794872730563E-15,-1.,0.));
#270=DIRECTION('',(-1.,-1.39394668647381E-14,0.));
#271=DIRECTION('',(-1.03585218390846E-14,1.,0.));
#272=DIRECTION('center_axis',(0.,0.,-1.));
#273=DIRECTION('ref_axis',(-0.500000000000011,0.866025403784432,0.));
#274=DIRECTION('',(-1.70915610344896E-14,1.,0.));
#275=DIRECTION('',(1.,1.36927506370436E-14,0.));
#276=DIRECTION('',(1.85358974546113E-14,-1.,0.));
#277=DIRECTION('',(-1.,-1.40628249785854E-14,0.));
#278=DIRECTION('',(9.86864910777917E-15,-1.,0.));
#279=DIRECTION('',(1.,1.48029736616688E-14,0.));
#280=DIRECTION('center_axis',(1.,1.03585218390846E-14,0.));
#281=DIRECTION('ref_axis',(0.,0.,-1.));
#282=DIRECTION('',(1.03585218390846E-14,-1.,0.));
#283=DIRECTION('',(0.,0.,-1.));
#284=DIRECTION('',(0.,0.,-1.));
#285=DIRECTION('center_axis',(0.,0.,1.));
#286=DIRECTION('ref_axis',(-0.500000000000011,0.866025403784432,0.));
#287=DIRECTION('center_axis',(0.,0.,1.));
#288=DIRECTION('ref_axis',(-0.500000000000011,0.866025403784432,0.));
#289=DIRECTION('',(0.,0.,-1.));
#290=DIRECTION('center_axis',(1.,1.70915610344896E-14,0.));
#291=DIRECTION('ref_axis',(0.,0.,-1.));
#292=DIRECTION('',(1.70915610344896E-14,-1.,0.));
#293=DIRECTION('',(0.,0.,-1.));
#294=DIRECTION('center_axis',(1.36927506370436E-14,-1.,0.));
#295=DIRECTION('ref_axis',(0.,0.,-1.));
#296=DIRECTION('',(-1.,-1.36927506370436E-14,0.));
#297=DIRECTION('',(0.,0.,-1.));
#298=DIRECTION('center_axis',(-1.,-1.85358974546113E-14,0.));
#299=DIRECTION('ref_axis',(0.,0.,1.));
#300=DIRECTION('',(-1.85358974546113E-14,1.,0.));
#301=DIRECTION('',(0.,0.,-1.));
#302=DIRECTION('center_axis',(-1.40628249785854E-14,1.,0.));
#303=DIRECTION('ref_axis',(0.,0.,1.));
#304=DIRECTION('',(1.,1.40628249785854E-14,0.));
#305=DIRECTION('',(0.,0.,-1.));
#306=DIRECTION('center_axis',(-1.,-9.86864910777917E-15,0.));
#307=DIRECTION('ref_axis',(0.,0.,1.));
#308=DIRECTION('',(-9.86864910777917E-15,1.,0.));
#309=DIRECTION('',(0.,0.,-1.));
#310=DIRECTION('center_axis',(1.48029736616688E-14,-1.,0.));
#311=DIRECTION('ref_axis',(0.,0.,-1.));
#312=DIRECTION('',(-1.,-1.48029736616688E-14,0.));
#313=DIRECTION('',(0.,0.,-1.));
#314=DIRECTION('center_axis',(-1.,-9.26794872730563E-15,0.));
#315=DIRECTION('ref_axis',(0.,0.,1.));
#316=DIRECTION('',(-9.26794872730563E-15,1.,0.));
#317=DIRECTION('',(0.,0.,1.));
#318=DIRECTION('center_axis',(-1.39394668647381E-14,1.,0.));
#319=DIRECTION('ref_axis',(0.,0.,1.));
#320=DIRECTION('',(1.,1.39394668647381E-14,0.));
#321=DIRECTION('center_axis',(0.,0.,1.));
#322=DIRECTION('ref_axis',(1.,0.,0.));
#323=CARTESIAN_POINT('',(0.,0.,0.));
#324=CARTESIAN_POINT('Origin',(-13.5837361021398,-1.88113413734925E-13,
-2.));
#325=CARTESIAN_POINT('',(-22.0000000000001,7.99999999999971,-2.));
#326=CARTESIAN_POINT('',(-22.,2.24999999999969,-2.));
#327=CARTESIAN_POINT('',(-22.,2.24999999999969,-2.));
#328=CARTESIAN_POINT('',(-4.0000000000001,7.99999999999996,-2.));
#329=CARTESIAN_POINT('',(-22.0000000000001,7.99999999999971,-2.));
#330=CARTESIAN_POINT('',(-4.00000000000009,6.92820323027546,-2.));
#331=CARTESIAN_POINT('',(-4.0000000000001,7.99999999999996,-2.));
#332=CARTESIAN_POINT('',(-3.9999999999999,-6.92820323027557,-2.));
#333=CARTESIAN_POINT('Origin',(0.,0.,-2.));
#334=CARTESIAN_POINT('',(-3.99999999999988,-8.00000000000007,-2.));
#335=CARTESIAN_POINT('',(-3.9999999999999,-6.92820323027557,-2.));
#336=CARTESIAN_POINT('',(-21.9999999999999,-8.00000000000032,-2.));
#337=CARTESIAN_POINT('',(-3.99999999999988,-8.00000000000007,-2.));
#338=CARTESIAN_POINT('',(-22.,-2.25000000000031,-2.));
#339=CARTESIAN_POINT('',(-21.9999999999999,-8.00000000000032,-2.));
#340=CARTESIAN_POINT('',(-19.,-2.25000000000026,-2.));
#341=CARTESIAN_POINT('',(-22.,-2.25000000000031,-2.));
#342=CARTESIAN_POINT('',(-19.,2.24999999999974,-2.));
#343=CARTESIAN_POINT('',(-19.,-2.25000000000026,-2.));
#344=CARTESIAN_POINT('',(-19.,2.24999999999974,-2.));
#345=CARTESIAN_POINT('Origin',(-4.0000000000001,7.99999999999996,0.));
#346=CARTESIAN_POINT('',(-4.0000000000001,7.99999999999996,2.));
#347=CARTESIAN_POINT('',(-4.00000000000009,6.92820323027546,2.));
#348=CARTESIAN_POINT('',(-4.0000000000001,7.99999999999996,2.));
#349=CARTESIAN_POINT('',(-4.00000000000009,6.92820323027546,0.));
#350=CARTESIAN_POINT('',(-4.0000000000001,7.99999999999996,0.));
#351=CARTESIAN_POINT('Origin',(0.,0.,0.));
#352=CARTESIAN_POINT('',(-3.9999999999999,-6.92820323027557,2.));
#353=CARTESIAN_POINT('Origin',(0.,0.,2.));
#354=CARTESIAN_POINT('',(-3.9999999999999,-6.92820323027557,0.));
#355=CARTESIAN_POINT('Origin',(-3.9999999999999,-6.92820323027557,0.));
#356=CARTESIAN_POINT('',(-3.99999999999988,-8.00000000000007,2.));
#357=CARTESIAN_POINT('',(-3.9999999999999,-6.92820323027557,2.));
#358=CARTESIAN_POINT('',(-3.99999999999988,-8.00000000000007,0.));
#359=CARTESIAN_POINT('Origin',(-3.99999999999988,-8.00000000000007,0.));
#360=CARTESIAN_POINT('',(-21.9999999999999,-8.00000000000032,2.));
#361=CARTESIAN_POINT('',(-3.99999999999988,-8.00000000000007,2.));
#362=CARTESIAN_POINT('',(-21.9999999999999,-8.00000000000032,0.));
#363=CARTESIAN_POINT('Origin',(-21.9999999999999,-8.00000000000032,0.));
#364=CARTESIAN_POINT('',(-22.,-2.25000000000031,2.));
#365=CARTESIAN_POINT('',(-21.9999999999999,-8.00000000000032,2.));
#366=CARTESIAN_POINT('',(-22.,-2.25000000000031,0.));
#367=CARTESIAN_POINT('Origin',(-22.,-2.25000000000031,0.));
#368=CARTESIAN_POINT('',(-19.,-2.25000000000026,2.));
#369=CARTESIAN_POINT('',(-22.,-2.25000000000031,2.));
#370=CARTESIAN_POINT('',(-19.,-2.25000000000026,0.));
#371=CARTESIAN_POINT('Origin',(-19.,-2.25000000000026,0.));
#372=CARTESIAN_POINT('',(-19.,2.24999999999974,2.));
#373=CARTESIAN_POINT('',(-19.,-2.25000000000026,2.));
#374=CARTESIAN_POINT('',(-19.,2.24999999999974,0.));
#375=CARTESIAN_POINT('Origin',(-19.,2.24999999999974,0.));
#376=CARTESIAN_POINT('',(-22.,2.24999999999969,2.));
#377=CARTESIAN_POINT('',(-19.,2.24999999999974,2.));
#378=CARTESIAN_POINT('',(-22.,2.24999999999969,0.));
#379=CARTESIAN_POINT('Origin',(-22.,2.24999999999969,0.));
#380=CARTESIAN_POINT('',(-22.0000000000001,7.99999999999971,2.));
#381=CARTESIAN_POINT('',(-22.,2.24999999999969,2.));
#382=CARTESIAN_POINT('',(-22.0000000000001,7.99999999999971,0.));
#383=CARTESIAN_POINT('Origin',(-22.0000000000001,7.99999999999971,0.));
#384=CARTESIAN_POINT('',(-22.0000000000001,7.99999999999971,2.));
#385=CARTESIAN_POINT('Origin',(-13.5837361021398,-1.87419524344534E-13,
2.));
#386=UNCERTAINTY_MEASURE_WITH_UNIT(LENGTH_MEASURE(0.01),#390,
'DISTANCE_ACCURACY_VALUE',
'Maximum model space distance between geometric entities at asserted c
onnectivities');
#387=UNCERTAINTY_MEASURE_WITH_UNIT(LENGTH_MEASURE(0.01),#390,
'DISTANCE_ACCURACY_VALUE',
'Maximum model space distance between geometric entities at asserted c
onnectivities');
#388=(
GEOMETRIC_REPRESENTATION_CONTEXT(3)
GLOBAL_UNCERTAINTY_ASSIGNED_CONTEXT((#386))
GLOBAL_UNIT_ASSIGNED_CONTEXT((#390,#392,#393))
REPRESENTATION_CONTEXT('','3D')
);
#389=(
GEOMETRIC_REPRESENTATION_CONTEXT(3)
GLOBAL_UNCERTAINTY_ASSIGNED_CONTEXT((#387))
GLOBAL_UNIT_ASSIGNED_CONTEXT((#390,#392,#393))
REPRESENTATION_CONTEXT('','3D')
);
#390=(
LENGTH_UNIT()
NAMED_UNIT(*)
SI_UNIT(.MILLI.,.METRE.)
);
#391=(
LENGTH_UNIT()
NAMED_UNIT(*)
SI_UNIT(.CENTI.,.METRE.)
);
#392=(
NAMED_UNIT(*)
PLANE_ANGLE_UNIT()
SI_UNIT($,.RADIAN.)
);
#393=(
NAMED_UNIT(*)
SI_UNIT($,.STERADIAN.)
SOLID_ANGLE_UNIT()
);
#394=SHAPE_DEFINITION_REPRESENTATION(#395,#396);
#395=PRODUCT_DEFINITION_SHAPE('',$,#398);
#396=SHAPE_REPRESENTATION('',(#250),#388);
#397=DESIGN_CONTEXT('part definition',#402,'design');
#398=PRODUCT_DEFINITION('28-0816-0FZ.000','00011029',#399,#397);
#399=PRODUCT_DEFINITION_FORMATION('00',$,#404);
#400=PRODUCT_RELATED_PRODUCT_CATEGORY('00011029','00011029',(#404));
#401=APPLICATION_PROTOCOL_DEFINITION('international standard',
'ap203_configuration_controlled_3d_design_of_mechanical_parts_and_asse
mblies_mim_lf',2004,#402);
#402=APPLICATION_CONTEXT(
'Configuration Controlled 3D Design of Mechanical Parts and Assemblies');
#403=MECHANICAL_CONTEXT('part definition',#402,'mechanical');
#404=PRODUCT('28-0816-0FZ.000','00011029','Schmierfilz LR 16',(#403));
#405=PRESENTATION_STYLE_ASSIGNMENT((#406));
#406=SURFACE_STYLE_USAGE(.BOTH.,#409);
#407=SURFACE_STYLE_RENDERING_WITH_PROPERTIES($,#413,(#408));
#408=SURFACE_STYLE_TRANSPARENT(0.);
#409=SURFACE_SIDE_STYLE('',(#410,#407));
#410=SURFACE_STYLE_FILL_AREA(#411);
#411=FILL_AREA_STYLE('',(#412));
#412=FILL_AREA_STYLE_COLOUR('',#413);
#413=COLOUR_RGB('',0.949019607843137,0.949019607843137,1.);
ENDSEC;
END-ISO-10303-21;
