ISO-10303-21;
HEADER;
/* Generated by software containing ST-Developer
 * from STEP Tools, Inc. (www.steptools.com) 
 */

FILE_DESCRIPTION(
/* description */ ('Dichtplatte 45 ohne Schlitz'),
/* implementation_level */ '2;1');

FILE_NAME(
/* name */ 
'\\\\crossprint\\CrossbaseMedia\\daten_aus_vault\\ZEI_CAD_241117-0-REV
_#SALL_#AIN_#V1.step',
/* time_stamp */ '2022-09-15T21:32:51+02:00',
/* author */ ('MiniTec'),
/* organization */ ('MiniTec GmbH & Co.KG'),
/* preprocessor_version */ 'ST-DEVELOPER v18.1',
/* originating_system */ 'Autodesk Inventor 2021',
/* authorisation */ '');

FILE_SCHEMA (('CONFIG_CONTROL_DESIGN'));
ENDSEC;

DATA;
#10=MECHANICAL_DESIGN_GEOMETRIC_PRESENTATION_REPRESENTATION('',(#13),#368);
#11=SHAPE_REPRESENTATION_RELATIONSHIP('SRR','None',#375,#12);
#12=ADVANCED_BREP_SHAPE_REPRESENTATION('',(#14),#367);
#13=STYLED_ITEM('',(#384),#14);
#14=MANIFOLD_SOLID_BREP('Volumenk\X\F6rper1',#206);
#15=FACE_BOUND('',#36,.T.);
#16=FACE_BOUND('',#46,.T.);
#17=PLANE('',#229);
#18=PLANE('',#234);
#19=PLANE('',#237);
#20=PLANE('',#240);
#21=PLANE('',#243);
#22=PLANE('',#246);
#23=FACE_OUTER_BOUND('',#34,.T.);
#24=FACE_OUTER_BOUND('',#35,.T.);
#25=FACE_OUTER_BOUND('',#37,.T.);
#26=FACE_OUTER_BOUND('',#38,.T.);
#27=FACE_OUTER_BOUND('',#39,.T.);
#28=FACE_OUTER_BOUND('',#40,.T.);
#29=FACE_OUTER_BOUND('',#41,.T.);
#30=FACE_OUTER_BOUND('',#42,.T.);
#31=FACE_OUTER_BOUND('',#43,.T.);
#32=FACE_OUTER_BOUND('',#44,.T.);
#33=FACE_OUTER_BOUND('',#45,.T.);
#34=EDGE_LOOP('',(#136,#137,#138,#139));
#35=EDGE_LOOP('',(#140,#141,#142,#143,#144,#145,#146,#147));
#36=EDGE_LOOP('',(#148));
#37=EDGE_LOOP('',(#149,#150,#151,#152));
#38=EDGE_LOOP('',(#153,#154,#155,#156));
#39=EDGE_LOOP('',(#157,#158,#159,#160));
#40=EDGE_LOOP('',(#161,#162,#163,#164));
#41=EDGE_LOOP('',(#165,#166,#167,#168));
#42=EDGE_LOOP('',(#169,#170,#171,#172));
#43=EDGE_LOOP('',(#173,#174,#175,#176));
#44=EDGE_LOOP('',(#177,#178,#179,#180));
#45=EDGE_LOOP('',(#181,#182,#183,#184,#185,#186,#187,#188));
#46=EDGE_LOOP('',(#189));
#47=LINE('',#313,#64);
#48=LINE('',#318,#65);
#49=LINE('',#322,#66);
#50=LINE('',#326,#67);
#51=LINE('',#330,#68);
#52=LINE('',#335,#69);
#53=LINE('',#336,#70);
#54=LINE('',#337,#71);
#55=LINE('',#341,#72);
#56=LINE('',#344,#73);
#57=LINE('',#345,#74);
#58=LINE('',#349,#75);
#59=LINE('',#352,#76);
#60=LINE('',#353,#77);
#61=LINE('',#357,#78);
#62=LINE('',#360,#79);
#63=LINE('',#361,#80);
#64=VECTOR('',#253,4.5);
#65=VECTOR('',#258,10.);
#66=VECTOR('',#261,10.);
#67=VECTOR('',#264,10.);
#68=VECTOR('',#267,10.);
#69=VECTOR('',#272,10.);
#70=VECTOR('',#273,10.);
#71=VECTOR('',#274,10.);
#72=VECTOR('',#279,10.);
#73=VECTOR('',#282,10.);
#74=VECTOR('',#283,10.);
#75=VECTOR('',#288,10.);
#76=VECTOR('',#291,10.);
#77=VECTOR('',#292,10.);
#78=VECTOR('',#297,10.);
#79=VECTOR('',#300,10.);
#80=VECTOR('',#301,10.);
#81=CIRCLE('',#227,4.5);
#82=CIRCLE('',#228,4.5);
#83=CIRCLE('',#230,2.5);
#84=CIRCLE('',#231,2.5);
#85=CIRCLE('',#232,2.5);
#86=CIRCLE('',#233,2.5);
#87=CIRCLE('',#236,2.5);
#88=CIRCLE('',#239,2.5);
#89=CIRCLE('',#242,2.5);
#90=CIRCLE('',#245,2.5);
#91=VERTEX_POINT('',#310);
#92=VERTEX_POINT('',#312);
#93=VERTEX_POINT('',#316);
#94=VERTEX_POINT('',#317);
#95=VERTEX_POINT('',#319);
#96=VERTEX_POINT('',#321);
#97=VERTEX_POINT('',#323);
#98=VERTEX_POINT('',#325);
#99=VERTEX_POINT('',#327);
#100=VERTEX_POINT('',#329);
#101=VERTEX_POINT('',#333);
#102=VERTEX_POINT('',#334);
#103=VERTEX_POINT('',#339);
#104=VERTEX_POINT('',#343);
#105=VERTEX_POINT('',#347);
#106=VERTEX_POINT('',#351);
#107=VERTEX_POINT('',#355);
#108=VERTEX_POINT('',#359);
#109=EDGE_CURVE('',#91,#91,#81,.T.);
#110=EDGE_CURVE('',#91,#92,#47,.T.);
#111=EDGE_CURVE('',#92,#92,#82,.T.);
#112=EDGE_CURVE('',#93,#94,#48,.T.);
#113=EDGE_CURVE('',#95,#93,#83,.T.);
#114=EDGE_CURVE('',#96,#95,#49,.T.);
#115=EDGE_CURVE('',#97,#96,#84,.T.);
#116=EDGE_CURVE('',#98,#97,#50,.T.);
#117=EDGE_CURVE('',#99,#98,#85,.T.);
#118=EDGE_CURVE('',#100,#99,#51,.T.);
#119=EDGE_CURVE('',#94,#100,#86,.T.);
#120=EDGE_CURVE('',#101,#102,#52,.T.);
#121=EDGE_CURVE('',#96,#102,#53,.T.);
#122=EDGE_CURVE('',#101,#95,#54,.T.);
#123=EDGE_CURVE('',#102,#103,#87,.T.);
#124=EDGE_CURVE('',#97,#103,#55,.T.);
#125=EDGE_CURVE('',#103,#104,#56,.T.);
#126=EDGE_CURVE('',#98,#104,#57,.T.);
#127=EDGE_CURVE('',#104,#105,#88,.T.);
#128=EDGE_CURVE('',#99,#105,#58,.T.);
#129=EDGE_CURVE('',#105,#106,#59,.T.);
#130=EDGE_CURVE('',#100,#106,#60,.T.);
#131=EDGE_CURVE('',#106,#107,#89,.T.);
#132=EDGE_CURVE('',#94,#107,#61,.T.);
#133=EDGE_CURVE('',#107,#108,#62,.T.);
#134=EDGE_CURVE('',#93,#108,#63,.T.);
#135=EDGE_CURVE('',#108,#101,#90,.T.);
#136=ORIENTED_EDGE('',*,*,#109,.F.);
#137=ORIENTED_EDGE('',*,*,#110,.T.);
#138=ORIENTED_EDGE('',*,*,#111,.F.);
#139=ORIENTED_EDGE('',*,*,#110,.F.);
#140=ORIENTED_EDGE('',*,*,#112,.F.);
#141=ORIENTED_EDGE('',*,*,#113,.F.);
#142=ORIENTED_EDGE('',*,*,#114,.F.);
#143=ORIENTED_EDGE('',*,*,#115,.F.);
#144=ORIENTED_EDGE('',*,*,#116,.F.);
#145=ORIENTED_EDGE('',*,*,#117,.F.);
#146=ORIENTED_EDGE('',*,*,#118,.F.);
#147=ORIENTED_EDGE('',*,*,#119,.F.);
#148=ORIENTED_EDGE('',*,*,#109,.T.);
#149=ORIENTED_EDGE('',*,*,#120,.T.);
#150=ORIENTED_EDGE('',*,*,#121,.F.);
#151=ORIENTED_EDGE('',*,*,#114,.T.);
#152=ORIENTED_EDGE('',*,*,#122,.F.);
#153=ORIENTED_EDGE('',*,*,#123,.T.);
#154=ORIENTED_EDGE('',*,*,#124,.F.);
#155=ORIENTED_EDGE('',*,*,#115,.T.);
#156=ORIENTED_EDGE('',*,*,#121,.T.);
#157=ORIENTED_EDGE('',*,*,#125,.T.);
#158=ORIENTED_EDGE('',*,*,#126,.F.);
#159=ORIENTED_EDGE('',*,*,#116,.T.);
#160=ORIENTED_EDGE('',*,*,#124,.T.);
#161=ORIENTED_EDGE('',*,*,#127,.T.);
#162=ORIENTED_EDGE('',*,*,#128,.F.);
#163=ORIENTED_EDGE('',*,*,#117,.T.);
#164=ORIENTED_EDGE('',*,*,#126,.T.);
#165=ORIENTED_EDGE('',*,*,#129,.T.);
#166=ORIENTED_EDGE('',*,*,#130,.F.);
#167=ORIENTED_EDGE('',*,*,#118,.T.);
#168=ORIENTED_EDGE('',*,*,#128,.T.);
#169=ORIENTED_EDGE('',*,*,#131,.T.);
#170=ORIENTED_EDGE('',*,*,#132,.F.);
#171=ORIENTED_EDGE('',*,*,#119,.T.);
#172=ORIENTED_EDGE('',*,*,#130,.T.);
#173=ORIENTED_EDGE('',*,*,#133,.T.);
#174=ORIENTED_EDGE('',*,*,#134,.F.);
#175=ORIENTED_EDGE('',*,*,#112,.T.);
#176=ORIENTED_EDGE('',*,*,#132,.T.);
#177=ORIENTED_EDGE('',*,*,#135,.T.);
#178=ORIENTED_EDGE('',*,*,#122,.T.);
#179=ORIENTED_EDGE('',*,*,#113,.T.);
#180=ORIENTED_EDGE('',*,*,#134,.T.);
#181=ORIENTED_EDGE('',*,*,#120,.F.);
#182=ORIENTED_EDGE('',*,*,#135,.F.);
#183=ORIENTED_EDGE('',*,*,#133,.F.);
#184=ORIENTED_EDGE('',*,*,#131,.F.);
#185=ORIENTED_EDGE('',*,*,#129,.F.);
#186=ORIENTED_EDGE('',*,*,#127,.F.);
#187=ORIENTED_EDGE('',*,*,#125,.F.);
#188=ORIENTED_EDGE('',*,*,#123,.F.);
#189=ORIENTED_EDGE('',*,*,#111,.T.);
#190=CYLINDRICAL_SURFACE('',#226,4.5);
#191=CYLINDRICAL_SURFACE('',#235,2.5);
#192=CYLINDRICAL_SURFACE('',#238,2.5);
#193=CYLINDRICAL_SURFACE('',#241,2.5);
#194=CYLINDRICAL_SURFACE('',#244,2.5);
#195=ADVANCED_FACE('',(#23),#190,.F.);
#196=ADVANCED_FACE('',(#24,#15),#17,.F.);
#197=ADVANCED_FACE('',(#25),#18,.T.);
#198=ADVANCED_FACE('',(#26),#191,.T.);
#199=ADVANCED_FACE('',(#27),#19,.T.);
#200=ADVANCED_FACE('',(#28),#192,.T.);
#201=ADVANCED_FACE('',(#29),#20,.T.);
#202=ADVANCED_FACE('',(#30),#193,.T.);
#203=ADVANCED_FACE('',(#31),#21,.T.);
#204=ADVANCED_FACE('',(#32),#194,.T.);
#205=ADVANCED_FACE('',(#33,#16),#22,.T.);
#206=CLOSED_SHELL('',(#195,#196,#197,#198,#199,#200,#201,#202,#203,#204,
#205));
#207=DERIVED_UNIT_ELEMENT(#209,1.);
#208=DERIVED_UNIT_ELEMENT(#370,-3.);
#209=(
MASS_UNIT()
NAMED_UNIT(*)
SI_UNIT($,.GRAM.)
);
#210=DERIVED_UNIT((#207,#208));
#211=MEASURE_REPRESENTATION_ITEM('density measure',
POSITIVE_RATIO_MEASURE(1.25),#210);
#212=PROPERTY_DEFINITION_REPRESENTATION(#217,#214);
#213=PROPERTY_DEFINITION_REPRESENTATION(#218,#215);
#214=REPRESENTATION('material name',(#216),#367);
#215=REPRESENTATION('density',(#211),#367);
#216=DESCRIPTIVE_REPRESENTATION_ITEM('Silikon','Silikon');
#217=PROPERTY_DEFINITION('material property','material name',#377);
#218=PROPERTY_DEFINITION('material property','density of part',#377);
#219=DATE_TIME_ROLE('creation_date');
#220=CC_DESIGN_DATE_AND_TIME_ASSIGNMENT(#221,#219,(#377));
#221=DATE_AND_TIME(#222,#223);
#222=CALENDAR_DATE(2009,16,10);
#223=LOCAL_TIME(0,0,0.,#224);
#224=COORDINATED_UNIVERSAL_TIME_OFFSET(0,0,.BEHIND.);
#225=AXIS2_PLACEMENT_3D('placement',#308,#247,#248);
#226=AXIS2_PLACEMENT_3D('',#309,#249,#250);
#227=AXIS2_PLACEMENT_3D('',#311,#251,#252);
#228=AXIS2_PLACEMENT_3D('',#314,#254,#255);
#229=AXIS2_PLACEMENT_3D('',#315,#256,#257);
#230=AXIS2_PLACEMENT_3D('',#320,#259,#260);
#231=AXIS2_PLACEMENT_3D('',#324,#262,#263);
#232=AXIS2_PLACEMENT_3D('',#328,#265,#266);
#233=AXIS2_PLACEMENT_3D('',#331,#268,#269);
#234=AXIS2_PLACEMENT_3D('',#332,#270,#271);
#235=AXIS2_PLACEMENT_3D('',#338,#275,#276);
#236=AXIS2_PLACEMENT_3D('',#340,#277,#278);
#237=AXIS2_PLACEMENT_3D('',#342,#280,#281);
#238=AXIS2_PLACEMENT_3D('',#346,#284,#285);
#239=AXIS2_PLACEMENT_3D('',#348,#286,#287);
#240=AXIS2_PLACEMENT_3D('',#350,#289,#290);
#241=AXIS2_PLACEMENT_3D('',#354,#293,#294);
#242=AXIS2_PLACEMENT_3D('',#356,#295,#296);
#243=AXIS2_PLACEMENT_3D('',#358,#298,#299);
#244=AXIS2_PLACEMENT_3D('',#362,#302,#303);
#245=AXIS2_PLACEMENT_3D('',#363,#304,#305);
#246=AXIS2_PLACEMENT_3D('',#364,#306,#307);
#247=DIRECTION('axis',(0.,0.,1.));
#248=DIRECTION('refdir',(1.,0.,0.));
#249=DIRECTION('center_axis',(0.,0.,1.));
#250=DIRECTION('ref_axis',(-1.,0.,0.));
#251=DIRECTION('center_axis',(0.,0.,1.));
#252=DIRECTION('ref_axis',(-1.,0.,0.));
#253=DIRECTION('',(0.,0.,1.));
#254=DIRECTION('center_axis',(0.,0.,-1.));
#255=DIRECTION('ref_axis',(-1.,0.,0.));
#256=DIRECTION('center_axis',(0.,0.,1.));
#257=DIRECTION('ref_axis',(1.,0.,0.));
#258=DIRECTION('',(0.,-1.,0.));
#259=DIRECTION('center_axis',(0.,0.,1.));
#260=DIRECTION('ref_axis',(3.55271367880051E-15,1.,0.));
#261=DIRECTION('',(-1.,2.22044604925031E-16,0.));
#262=DIRECTION('center_axis',(0.,0.,1.));
#263=DIRECTION('ref_axis',(1.,0.,0.));
#264=DIRECTION('',(1.11022302462516E-16,1.,0.));
#265=DIRECTION('center_axis',(0.,0.,1.));
#266=DIRECTION('ref_axis',(-1.77635683940025E-15,-1.,0.));
#267=DIRECTION('',(1.,3.33066907387547E-16,0.));
#268=DIRECTION('center_axis',(0.,0.,1.));
#269=DIRECTION('ref_axis',(-1.,0.,0.));
#270=DIRECTION('center_axis',(2.22044604925031E-16,1.,0.));
#271=DIRECTION('ref_axis',(0.,0.,1.));
#272=DIRECTION('',(1.,-2.22044604925031E-16,0.));
#273=DIRECTION('',(0.,0.,1.));
#274=DIRECTION('',(0.,0.,-1.));
#275=DIRECTION('center_axis',(0.,0.,1.));
#276=DIRECTION('ref_axis',(1.,0.,0.));
#277=DIRECTION('center_axis',(0.,0.,-1.));
#278=DIRECTION('ref_axis',(1.,0.,0.));
#279=DIRECTION('',(0.,0.,1.));
#280=DIRECTION('center_axis',(1.,-1.11022302462516E-16,0.));
#281=DIRECTION('ref_axis',(0.,0.,-1.));
#282=DIRECTION('',(-1.11022302462516E-16,-1.,0.));
#283=DIRECTION('',(0.,0.,1.));
#284=DIRECTION('center_axis',(0.,0.,1.));
#285=DIRECTION('ref_axis',(-1.77635683940025E-15,-1.,0.));
#286=DIRECTION('center_axis',(0.,0.,-1.));
#287=DIRECTION('ref_axis',(-1.77635683940025E-15,-1.,0.));
#288=DIRECTION('',(0.,0.,1.));
#289=DIRECTION('center_axis',(3.33066907387547E-16,-1.,0.));
#290=DIRECTION('ref_axis',(0.,0.,-1.));
#291=DIRECTION('',(-1.,-3.33066907387547E-16,0.));
#292=DIRECTION('',(0.,0.,1.));
#293=DIRECTION('center_axis',(0.,0.,1.));
#294=DIRECTION('ref_axis',(-1.,0.,0.));
#295=DIRECTION('center_axis',(0.,0.,-1.));
#296=DIRECTION('ref_axis',(-1.,0.,0.));
#297=DIRECTION('',(0.,0.,1.));
#298=DIRECTION('center_axis',(-1.,0.,0.));
#299=DIRECTION('ref_axis',(0.,0.,1.));
#300=DIRECTION('',(0.,1.,0.));
#301=DIRECTION('',(0.,0.,1.));
#302=DIRECTION('center_axis',(0.,0.,1.));
#303=DIRECTION('ref_axis',(3.55271367880051E-15,1.,0.));
#304=DIRECTION('center_axis',(0.,0.,-1.));
#305=DIRECTION('ref_axis',(3.55271367880051E-15,1.,0.));
#306=DIRECTION('center_axis',(0.,0.,1.));
#307=DIRECTION('ref_axis',(1.,0.,0.));
#308=CARTESIAN_POINT('',(0.,0.,0.));
#309=CARTESIAN_POINT('Origin',(0.,0.,0.));
#310=CARTESIAN_POINT('',(4.5,5.51091059616309E-16,-0.5));
#311=CARTESIAN_POINT('Origin',(0.,0.,-0.5));
#312=CARTESIAN_POINT('',(4.5,5.51091059616309E-16,0.5));
#313=CARTESIAN_POINT('',(4.5,5.51091059616309E-16,0.));
#314=CARTESIAN_POINT('Origin',(0.,0.,0.5));
#315=CARTESIAN_POINT('Origin',(-1.11022302462516E-15,7.93141252205595E-16,
-0.5));
#316=CARTESIAN_POINT('',(-22.5,20.,-0.5));
#317=CARTESIAN_POINT('',(-22.5,-20.,-0.5));
#318=CARTESIAN_POINT('',(-22.5,20.,-0.5));
#319=CARTESIAN_POINT('',(-20.,22.5,-0.5));
#320=CARTESIAN_POINT('Origin',(-20.,20.,-0.5));
#321=CARTESIAN_POINT('',(20.,22.5,-0.5));
#322=CARTESIAN_POINT('',(20.,22.5,-0.5));
#323=CARTESIAN_POINT('',(22.5,20.,-0.5));
#324=CARTESIAN_POINT('Origin',(20.,20.,-0.5));
#325=CARTESIAN_POINT('',(22.5,-20.,-0.5));
#326=CARTESIAN_POINT('',(22.5,-20.,-0.5));
#327=CARTESIAN_POINT('',(20.,-22.5,-0.5));
#328=CARTESIAN_POINT('Origin',(20.,-20.,-0.5));
#329=CARTESIAN_POINT('',(-20.,-22.5,-0.5));
#330=CARTESIAN_POINT('',(-20.,-22.5,-0.5));
#331=CARTESIAN_POINT('Origin',(-20.,-20.,-0.5));
#332=CARTESIAN_POINT('Origin',(-20.,22.5,0.));
#333=CARTESIAN_POINT('',(-20.,22.5,0.5));
#334=CARTESIAN_POINT('',(20.,22.5,0.5));
#335=CARTESIAN_POINT('',(20.,22.5,0.5));
#336=CARTESIAN_POINT('',(20.,22.5,0.));
#337=CARTESIAN_POINT('',(-20.,22.5,0.));
#338=CARTESIAN_POINT('Origin',(20.,20.,0.));
#339=CARTESIAN_POINT('',(22.5,20.,0.5));
#340=CARTESIAN_POINT('Origin',(20.,20.,0.5));
#341=CARTESIAN_POINT('',(22.5,20.,0.));
#342=CARTESIAN_POINT('Origin',(22.5,20.,0.));
#343=CARTESIAN_POINT('',(22.5,-20.,0.5));
#344=CARTESIAN_POINT('',(22.5,-20.,0.5));
#345=CARTESIAN_POINT('',(22.5,-20.,0.));
#346=CARTESIAN_POINT('Origin',(20.,-20.,0.));
#347=CARTESIAN_POINT('',(20.,-22.5,0.5));
#348=CARTESIAN_POINT('Origin',(20.,-20.,0.5));
#349=CARTESIAN_POINT('',(20.,-22.5,0.));
#350=CARTESIAN_POINT('Origin',(20.,-22.5,0.));
#351=CARTESIAN_POINT('',(-20.,-22.5,0.5));
#352=CARTESIAN_POINT('',(-20.,-22.5,0.5));
#353=CARTESIAN_POINT('',(-20.,-22.5,0.));
#354=CARTESIAN_POINT('Origin',(-20.,-20.,0.));
#355=CARTESIAN_POINT('',(-22.5,-20.,0.5));
#356=CARTESIAN_POINT('Origin',(-20.,-20.,0.5));
#357=CARTESIAN_POINT('',(-22.5,-20.,0.));
#358=CARTESIAN_POINT('Origin',(-22.5,-20.,0.));
#359=CARTESIAN_POINT('',(-22.5,20.,0.5));
#360=CARTESIAN_POINT('',(-22.5,20.,0.5));
#361=CARTESIAN_POINT('',(-22.5,20.,0.));
#362=CARTESIAN_POINT('Origin',(-20.,20.,0.));
#363=CARTESIAN_POINT('Origin',(-20.,20.,0.5));
#364=CARTESIAN_POINT('Origin',(-2.11839513351458E-16,1.11022302462516E-15,
0.5));
#365=UNCERTAINTY_MEASURE_WITH_UNIT(LENGTH_MEASURE(0.01),#369,
'DISTANCE_ACCURACY_VALUE',
'Maximum model space distance between geometric entities at asserted c
onnectivities');
#366=UNCERTAINTY_MEASURE_WITH_UNIT(LENGTH_MEASURE(0.01),#369,
'DISTANCE_ACCURACY_VALUE',
'Maximum model space distance between geometric entities at asserted c
onnectivities');
#367=(
GEOMETRIC_REPRESENTATION_CONTEXT(3)
GLOBAL_UNCERTAINTY_ASSIGNED_CONTEXT((#365))
GLOBAL_UNIT_ASSIGNED_CONTEXT((#369,#371,#372))
REPRESENTATION_CONTEXT('','3D')
);
#368=(
GEOMETRIC_REPRESENTATION_CONTEXT(3)
GLOBAL_UNCERTAINTY_ASSIGNED_CONTEXT((#366))
GLOBAL_UNIT_ASSIGNED_CONTEXT((#369,#371,#372))
REPRESENTATION_CONTEXT('','3D')
);
#369=(
LENGTH_UNIT()
NAMED_UNIT(*)
SI_UNIT(.MILLI.,.METRE.)
);
#370=(
LENGTH_UNIT()
NAMED_UNIT(*)
SI_UNIT(.CENTI.,.METRE.)
);
#371=(
NAMED_UNIT(*)
PLANE_ANGLE_UNIT()
SI_UNIT($,.RADIAN.)
);
#372=(
NAMED_UNIT(*)
SI_UNIT($,.STERADIAN.)
SOLID_ANGLE_UNIT()
);
#373=SHAPE_DEFINITION_REPRESENTATION(#374,#375);
#374=PRODUCT_DEFINITION_SHAPE('',$,#377);
#375=SHAPE_REPRESENTATION('',(#225),#367);
#376=DESIGN_CONTEXT('part definition',#381,'design');
#377=PRODUCT_DEFINITION('24-1117-0FZ.000','00019950',#378,#376);
#378=PRODUCT_DEFINITION_FORMATION('',$,#383);
#379=PRODUCT_RELATED_PRODUCT_CATEGORY('00019950','00019950',(#383));
#380=APPLICATION_PROTOCOL_DEFINITION('international standard',
'ap203_configuration_controlled_3d_design_of_mechanical_parts_and_asse
mblies_mim_lf',2004,#381);
#381=APPLICATION_CONTEXT(
'Configuration Controlled 3D Design of Mechanical Parts and Assemblies');
#382=MECHANICAL_CONTEXT('part definition',#381,'mechanical');
#383=PRODUCT('24-1117-0FZ.000','00019950','Dichtplatte 45 ohne Schlitz',
(#382));
#384=PRESENTATION_STYLE_ASSIGNMENT((#385));
#385=SURFACE_STYLE_USAGE(.BOTH.,#388);
#386=SURFACE_STYLE_RENDERING_WITH_PROPERTIES($,#392,(#387));
#387=SURFACE_STYLE_TRANSPARENT(0.360000014305115);
#388=SURFACE_SIDE_STYLE('',(#389,#386));
#389=SURFACE_STYLE_FILL_AREA(#390);
#390=FILL_AREA_STYLE('',(#391));
#391=FILL_AREA_STYLE_COLOUR('',#392);
#392=COLOUR_RGB('',0.450980392156863,0.27843137254902,0.0392156862745098);
ENDSEC;
END-ISO-10303-21;
