ISO-10303-21;
HEADER;
/* Generated by software containing ST-Developer
 * from STEP Tools, Inc. (www.steptools.com) 
 */

FILE_DESCRIPTION(
/* description */ ('Dichtplatte 45 mit Schlitz'),
/* implementation_level */ '2;1');

FILE_NAME(
/* name */ 
'\\\\crossprint\\CrossbaseMedia\\daten_aus_vault\\ZEI_CAD_241116-0-REV
_#SALL_#AIN_#V1.step',
/* time_stamp */ '2022-09-15T21:32:49+02:00',
/* author */ ('MiniTec'),
/* organization */ ('MiniTec GmbH & Co.KG'),
/* preprocessor_version */ 'ST-DEVELOPER v18.1',
/* originating_system */ 'Autodesk Inventor 2021',
/* authorisation */ '');

FILE_SCHEMA (('CONFIG_CONTROL_DESIGN'));
ENDSEC;

DATA;
#10=MECHANICAL_DESIGN_GEOMETRIC_PRESENTATION_REPRESENTATION('',(#13),#570);
#11=SHAPE_REPRESENTATION_RELATIONSHIP('SRR','None',#577,#12);
#12=ADVANCED_BREP_SHAPE_REPRESENTATION('',(#14),#569);
#13=STYLED_ITEM('',(#586),#14);
#14=MANIFOLD_SOLID_BREP('Volumenk\X\F6rper1',#328);
#15=FACE_BOUND('',#46,.T.);
#16=FACE_BOUND('',#62,.T.);
#17=PLANE('',#351);
#18=PLANE('',#358);
#19=PLANE('',#361);
#20=PLANE('',#364);
#21=PLANE('',#367);
#22=PLANE('',#368);
#23=PLANE('',#371);
#24=PLANE('',#374);
#25=PLANE('',#375);
#26=PLANE('',#378);
#27=FACE_OUTER_BOUND('',#44,.T.);
#28=FACE_OUTER_BOUND('',#45,.T.);
#29=FACE_OUTER_BOUND('',#47,.T.);
#30=FACE_OUTER_BOUND('',#48,.T.);
#31=FACE_OUTER_BOUND('',#49,.T.);
#32=FACE_OUTER_BOUND('',#50,.T.);
#33=FACE_OUTER_BOUND('',#51,.T.);
#34=FACE_OUTER_BOUND('',#52,.T.);
#35=FACE_OUTER_BOUND('',#53,.T.);
#36=FACE_OUTER_BOUND('',#54,.T.);
#37=FACE_OUTER_BOUND('',#55,.T.);
#38=FACE_OUTER_BOUND('',#56,.T.);
#39=FACE_OUTER_BOUND('',#57,.T.);
#40=FACE_OUTER_BOUND('',#58,.T.);
#41=FACE_OUTER_BOUND('',#59,.T.);
#42=FACE_OUTER_BOUND('',#60,.T.);
#43=FACE_OUTER_BOUND('',#61,.T.);
#44=EDGE_LOOP('',(#214,#215,#216,#217));
#45=EDGE_LOOP('',(#218,#219,#220,#221,#222,#223,#224,#225,#226,#227,#228,
#229,#230,#231));
#46=EDGE_LOOP('',(#232));
#47=EDGE_LOOP('',(#233,#234,#235,#236));
#48=EDGE_LOOP('',(#237,#238,#239,#240));
#49=EDGE_LOOP('',(#241,#242,#243,#244));
#50=EDGE_LOOP('',(#245,#246,#247,#248));
#51=EDGE_LOOP('',(#249,#250,#251,#252));
#52=EDGE_LOOP('',(#253,#254,#255,#256));
#53=EDGE_LOOP('',(#257,#258,#259,#260));
#54=EDGE_LOOP('',(#261,#262,#263,#264));
#55=EDGE_LOOP('',(#265,#266,#267,#268));
#56=EDGE_LOOP('',(#269,#270,#271,#272));
#57=EDGE_LOOP('',(#273,#274,#275,#276));
#58=EDGE_LOOP('',(#277,#278,#279,#280));
#59=EDGE_LOOP('',(#281,#282,#283,#284));
#60=EDGE_LOOP('',(#285,#286,#287,#288));
#61=EDGE_LOOP('',(#289,#290,#291,#292,#293,#294,#295,#296,#297,#298,#299,
#300,#301,#302));
#62=EDGE_LOOP('',(#303));
#63=LINE('',#479,#94);
#64=LINE('',#484,#95);
#65=LINE('',#488,#96);
#66=LINE('',#492,#97);
#67=LINE('',#496,#98);
#68=LINE('',#500,#99);
#69=LINE('',#502,#100);
#70=LINE('',#506,#101);
#71=LINE('',#509,#102);
#72=LINE('',#513,#103);
#73=LINE('',#514,#104);
#74=LINE('',#515,#105);
#75=LINE('',#519,#106);
#76=LINE('',#522,#107);
#77=LINE('',#523,#108);
#78=LINE('',#527,#109);
#79=LINE('',#530,#110);
#80=LINE('',#531,#111);
#81=LINE('',#535,#112);
#82=LINE('',#538,#113);
#83=LINE('',#539,#114);
#84=LINE('',#542,#115);
#85=LINE('',#543,#116);
#86=LINE('',#547,#117);
#87=LINE('',#550,#118);
#88=LINE('',#551,#119);
#89=LINE('',#555,#120);
#90=LINE('',#558,#121);
#91=LINE('',#559,#122);
#92=LINE('',#562,#123);
#93=LINE('',#563,#124);
#94=VECTOR('',#385,4.5);
#95=VECTOR('',#390,10.);
#96=VECTOR('',#393,10.);
#97=VECTOR('',#396,10.);
#98=VECTOR('',#399,10.);
#99=VECTOR('',#402,10.);
#100=VECTOR('',#403,10.);
#101=VECTOR('',#406,10.);
#102=VECTOR('',#409,10.);
#103=VECTOR('',#412,10.);
#104=VECTOR('',#413,10.);
#105=VECTOR('',#414,10.);
#106=VECTOR('',#419,10.);
#107=VECTOR('',#422,10.);
#108=VECTOR('',#423,10.);
#109=VECTOR('',#428,10.);
#110=VECTOR('',#431,10.);
#111=VECTOR('',#432,10.);
#112=VECTOR('',#437,10.);
#113=VECTOR('',#440,10.);
#114=VECTOR('',#441,10.);
#115=VECTOR('',#444,10.);
#116=VECTOR('',#445,10.);
#117=VECTOR('',#450,10.);
#118=VECTOR('',#453,10.);
#119=VECTOR('',#454,10.);
#120=VECTOR('',#459,10.);
#121=VECTOR('',#462,10.);
#122=VECTOR('',#463,10.);
#123=VECTOR('',#466,10.);
#124=VECTOR('',#467,10.);
#125=CIRCLE('',#349,4.5);
#126=CIRCLE('',#350,4.5);
#127=CIRCLE('',#352,2.5);
#128=CIRCLE('',#353,2.5);
#129=CIRCLE('',#354,2.5);
#130=CIRCLE('',#355,2.5);
#131=CIRCLE('',#356,2.5);
#132=CIRCLE('',#357,2.5);
#133=CIRCLE('',#360,2.5);
#134=CIRCLE('',#363,2.5);
#135=CIRCLE('',#366,2.5);
#136=CIRCLE('',#370,2.5);
#137=CIRCLE('',#373,2.5);
#138=CIRCLE('',#377,2.5);
#139=VERTEX_POINT('',#476);
#140=VERTEX_POINT('',#478);
#141=VERTEX_POINT('',#482);
#142=VERTEX_POINT('',#483);
#143=VERTEX_POINT('',#485);
#144=VERTEX_POINT('',#487);
#145=VERTEX_POINT('',#489);
#146=VERTEX_POINT('',#491);
#147=VERTEX_POINT('',#493);
#148=VERTEX_POINT('',#495);
#149=VERTEX_POINT('',#497);
#150=VERTEX_POINT('',#499);
#151=VERTEX_POINT('',#501);
#152=VERTEX_POINT('',#503);
#153=VERTEX_POINT('',#505);
#154=VERTEX_POINT('',#507);
#155=VERTEX_POINT('',#511);
#156=VERTEX_POINT('',#512);
#157=VERTEX_POINT('',#517);
#158=VERTEX_POINT('',#521);
#159=VERTEX_POINT('',#525);
#160=VERTEX_POINT('',#529);
#161=VERTEX_POINT('',#533);
#162=VERTEX_POINT('',#537);
#163=VERTEX_POINT('',#541);
#164=VERTEX_POINT('',#545);
#165=VERTEX_POINT('',#549);
#166=VERTEX_POINT('',#553);
#167=VERTEX_POINT('',#557);
#168=VERTEX_POINT('',#561);
#169=EDGE_CURVE('',#139,#139,#125,.T.);
#170=EDGE_CURVE('',#139,#140,#63,.T.);
#171=EDGE_CURVE('',#140,#140,#126,.T.);
#172=EDGE_CURVE('',#141,#142,#64,.T.);
#173=EDGE_CURVE('',#143,#141,#127,.T.);
#174=EDGE_CURVE('',#144,#143,#65,.T.);
#175=EDGE_CURVE('',#145,#144,#128,.T.);
#176=EDGE_CURVE('',#146,#145,#66,.T.);
#177=EDGE_CURVE('',#147,#146,#129,.T.);
#178=EDGE_CURVE('',#148,#147,#67,.T.);
#179=EDGE_CURVE('',#149,#148,#130,.T.);
#180=EDGE_CURVE('',#150,#149,#68,.T.);
#181=EDGE_CURVE('',#151,#150,#69,.T.);
#182=EDGE_CURVE('',#152,#151,#131,.T.);
#183=EDGE_CURVE('',#153,#152,#70,.T.);
#184=EDGE_CURVE('',#154,#153,#132,.T.);
#185=EDGE_CURVE('',#142,#154,#71,.T.);
#186=EDGE_CURVE('',#155,#156,#72,.T.);
#187=EDGE_CURVE('',#144,#156,#73,.T.);
#188=EDGE_CURVE('',#155,#143,#74,.T.);
#189=EDGE_CURVE('',#156,#157,#133,.T.);
#190=EDGE_CURVE('',#145,#157,#75,.T.);
#191=EDGE_CURVE('',#157,#158,#76,.T.);
#192=EDGE_CURVE('',#146,#158,#77,.T.);
#193=EDGE_CURVE('',#158,#159,#134,.T.);
#194=EDGE_CURVE('',#147,#159,#78,.T.);
#195=EDGE_CURVE('',#159,#160,#79,.T.);
#196=EDGE_CURVE('',#148,#160,#80,.T.);
#197=EDGE_CURVE('',#160,#161,#135,.T.);
#198=EDGE_CURVE('',#149,#161,#81,.T.);
#199=EDGE_CURVE('',#161,#162,#82,.T.);
#200=EDGE_CURVE('',#150,#162,#83,.T.);
#201=EDGE_CURVE('',#162,#163,#84,.T.);
#202=EDGE_CURVE('',#151,#163,#85,.T.);
#203=EDGE_CURVE('',#163,#164,#136,.T.);
#204=EDGE_CURVE('',#152,#164,#86,.T.);
#205=EDGE_CURVE('',#164,#165,#87,.T.);
#206=EDGE_CURVE('',#153,#165,#88,.T.);
#207=EDGE_CURVE('',#165,#166,#137,.T.);
#208=EDGE_CURVE('',#154,#166,#89,.T.);
#209=EDGE_CURVE('',#166,#167,#90,.T.);
#210=EDGE_CURVE('',#142,#167,#91,.T.);
#211=EDGE_CURVE('',#167,#168,#92,.T.);
#212=EDGE_CURVE('',#141,#168,#93,.T.);
#213=EDGE_CURVE('',#168,#155,#138,.T.);
#214=ORIENTED_EDGE('',*,*,#169,.F.);
#215=ORIENTED_EDGE('',*,*,#170,.T.);
#216=ORIENTED_EDGE('',*,*,#171,.F.);
#217=ORIENTED_EDGE('',*,*,#170,.F.);
#218=ORIENTED_EDGE('',*,*,#172,.F.);
#219=ORIENTED_EDGE('',*,*,#173,.F.);
#220=ORIENTED_EDGE('',*,*,#174,.F.);
#221=ORIENTED_EDGE('',*,*,#175,.F.);
#222=ORIENTED_EDGE('',*,*,#176,.F.);
#223=ORIENTED_EDGE('',*,*,#177,.F.);
#224=ORIENTED_EDGE('',*,*,#178,.F.);
#225=ORIENTED_EDGE('',*,*,#179,.F.);
#226=ORIENTED_EDGE('',*,*,#180,.F.);
#227=ORIENTED_EDGE('',*,*,#181,.F.);
#228=ORIENTED_EDGE('',*,*,#182,.F.);
#229=ORIENTED_EDGE('',*,*,#183,.F.);
#230=ORIENTED_EDGE('',*,*,#184,.F.);
#231=ORIENTED_EDGE('',*,*,#185,.F.);
#232=ORIENTED_EDGE('',*,*,#169,.T.);
#233=ORIENTED_EDGE('',*,*,#186,.T.);
#234=ORIENTED_EDGE('',*,*,#187,.F.);
#235=ORIENTED_EDGE('',*,*,#174,.T.);
#236=ORIENTED_EDGE('',*,*,#188,.F.);
#237=ORIENTED_EDGE('',*,*,#189,.T.);
#238=ORIENTED_EDGE('',*,*,#190,.F.);
#239=ORIENTED_EDGE('',*,*,#175,.T.);
#240=ORIENTED_EDGE('',*,*,#187,.T.);
#241=ORIENTED_EDGE('',*,*,#191,.T.);
#242=ORIENTED_EDGE('',*,*,#192,.F.);
#243=ORIENTED_EDGE('',*,*,#176,.T.);
#244=ORIENTED_EDGE('',*,*,#190,.T.);
#245=ORIENTED_EDGE('',*,*,#193,.T.);
#246=ORIENTED_EDGE('',*,*,#194,.F.);
#247=ORIENTED_EDGE('',*,*,#177,.T.);
#248=ORIENTED_EDGE('',*,*,#192,.T.);
#249=ORIENTED_EDGE('',*,*,#195,.T.);
#250=ORIENTED_EDGE('',*,*,#196,.F.);
#251=ORIENTED_EDGE('',*,*,#178,.T.);
#252=ORIENTED_EDGE('',*,*,#194,.T.);
#253=ORIENTED_EDGE('',*,*,#197,.T.);
#254=ORIENTED_EDGE('',*,*,#198,.F.);
#255=ORIENTED_EDGE('',*,*,#179,.T.);
#256=ORIENTED_EDGE('',*,*,#196,.T.);
#257=ORIENTED_EDGE('',*,*,#199,.T.);
#258=ORIENTED_EDGE('',*,*,#200,.F.);
#259=ORIENTED_EDGE('',*,*,#180,.T.);
#260=ORIENTED_EDGE('',*,*,#198,.T.);
#261=ORIENTED_EDGE('',*,*,#201,.T.);
#262=ORIENTED_EDGE('',*,*,#202,.F.);
#263=ORIENTED_EDGE('',*,*,#181,.T.);
#264=ORIENTED_EDGE('',*,*,#200,.T.);
#265=ORIENTED_EDGE('',*,*,#203,.T.);
#266=ORIENTED_EDGE('',*,*,#204,.F.);
#267=ORIENTED_EDGE('',*,*,#182,.T.);
#268=ORIENTED_EDGE('',*,*,#202,.T.);
#269=ORIENTED_EDGE('',*,*,#205,.T.);
#270=ORIENTED_EDGE('',*,*,#206,.F.);
#271=ORIENTED_EDGE('',*,*,#183,.T.);
#272=ORIENTED_EDGE('',*,*,#204,.T.);
#273=ORIENTED_EDGE('',*,*,#207,.T.);
#274=ORIENTED_EDGE('',*,*,#208,.F.);
#275=ORIENTED_EDGE('',*,*,#184,.T.);
#276=ORIENTED_EDGE('',*,*,#206,.T.);
#277=ORIENTED_EDGE('',*,*,#209,.T.);
#278=ORIENTED_EDGE('',*,*,#210,.F.);
#279=ORIENTED_EDGE('',*,*,#185,.T.);
#280=ORIENTED_EDGE('',*,*,#208,.T.);
#281=ORIENTED_EDGE('',*,*,#211,.T.);
#282=ORIENTED_EDGE('',*,*,#212,.F.);
#283=ORIENTED_EDGE('',*,*,#172,.T.);
#284=ORIENTED_EDGE('',*,*,#210,.T.);
#285=ORIENTED_EDGE('',*,*,#213,.T.);
#286=ORIENTED_EDGE('',*,*,#188,.T.);
#287=ORIENTED_EDGE('',*,*,#173,.T.);
#288=ORIENTED_EDGE('',*,*,#212,.T.);
#289=ORIENTED_EDGE('',*,*,#186,.F.);
#290=ORIENTED_EDGE('',*,*,#213,.F.);
#291=ORIENTED_EDGE('',*,*,#211,.F.);
#292=ORIENTED_EDGE('',*,*,#209,.F.);
#293=ORIENTED_EDGE('',*,*,#207,.F.);
#294=ORIENTED_EDGE('',*,*,#205,.F.);
#295=ORIENTED_EDGE('',*,*,#203,.F.);
#296=ORIENTED_EDGE('',*,*,#201,.F.);
#297=ORIENTED_EDGE('',*,*,#199,.F.);
#298=ORIENTED_EDGE('',*,*,#197,.F.);
#299=ORIENTED_EDGE('',*,*,#195,.F.);
#300=ORIENTED_EDGE('',*,*,#193,.F.);
#301=ORIENTED_EDGE('',*,*,#191,.F.);
#302=ORIENTED_EDGE('',*,*,#189,.F.);
#303=ORIENTED_EDGE('',*,*,#171,.T.);
#304=CYLINDRICAL_SURFACE('',#348,4.5);
#305=CYLINDRICAL_SURFACE('',#359,2.5);
#306=CYLINDRICAL_SURFACE('',#362,2.5);
#307=CYLINDRICAL_SURFACE('',#365,2.5);
#308=CYLINDRICAL_SURFACE('',#369,2.5);
#309=CYLINDRICAL_SURFACE('',#372,2.5);
#310=CYLINDRICAL_SURFACE('',#376,2.5);
#311=ADVANCED_FACE('',(#27),#304,.F.);
#312=ADVANCED_FACE('',(#28,#15),#17,.F.);
#313=ADVANCED_FACE('',(#29),#18,.T.);
#314=ADVANCED_FACE('',(#30),#305,.T.);
#315=ADVANCED_FACE('',(#31),#19,.T.);
#316=ADVANCED_FACE('',(#32),#306,.T.);
#317=ADVANCED_FACE('',(#33),#20,.T.);
#318=ADVANCED_FACE('',(#34),#307,.T.);
#319=ADVANCED_FACE('',(#35),#21,.T.);
#320=ADVANCED_FACE('',(#36),#22,.T.);
#321=ADVANCED_FACE('',(#37),#308,.F.);
#322=ADVANCED_FACE('',(#38),#23,.T.);
#323=ADVANCED_FACE('',(#39),#309,.F.);
#324=ADVANCED_FACE('',(#40),#24,.T.);
#325=ADVANCED_FACE('',(#41),#25,.T.);
#326=ADVANCED_FACE('',(#42),#310,.T.);
#327=ADVANCED_FACE('',(#43,#16),#26,.T.);
#328=CLOSED_SHELL('',(#311,#312,#313,#314,#315,#316,#317,#318,#319,#320,
#321,#322,#323,#324,#325,#326,#327));
#329=DERIVED_UNIT_ELEMENT(#331,1.);
#330=DERIVED_UNIT_ELEMENT(#572,-3.);
#331=(
MASS_UNIT()
NAMED_UNIT(*)
SI_UNIT($,.GRAM.)
);
#332=DERIVED_UNIT((#329,#330));
#333=MEASURE_REPRESENTATION_ITEM('density measure',
POSITIVE_RATIO_MEASURE(1.25),#332);
#334=PROPERTY_DEFINITION_REPRESENTATION(#339,#336);
#335=PROPERTY_DEFINITION_REPRESENTATION(#340,#337);
#336=REPRESENTATION('material name',(#338),#569);
#337=REPRESENTATION('density',(#333),#569);
#338=DESCRIPTIVE_REPRESENTATION_ITEM('Silikon','Silikon');
#339=PROPERTY_DEFINITION('material property','material name',#579);
#340=PROPERTY_DEFINITION('material property','density of part',#579);
#341=DATE_TIME_ROLE('creation_date');
#342=CC_DESIGN_DATE_AND_TIME_ASSIGNMENT(#343,#341,(#579));
#343=DATE_AND_TIME(#344,#345);
#344=CALENDAR_DATE(2009,16,10);
#345=LOCAL_TIME(0,0,0.,#346);
#346=COORDINATED_UNIVERSAL_TIME_OFFSET(0,0,.BEHIND.);
#347=AXIS2_PLACEMENT_3D('placement',#474,#379,#380);
#348=AXIS2_PLACEMENT_3D('',#475,#381,#382);
#349=AXIS2_PLACEMENT_3D('',#477,#383,#384);
#350=AXIS2_PLACEMENT_3D('',#480,#386,#387);
#351=AXIS2_PLACEMENT_3D('',#481,#388,#389);
#352=AXIS2_PLACEMENT_3D('',#486,#391,#392);
#353=AXIS2_PLACEMENT_3D('',#490,#394,#395);
#354=AXIS2_PLACEMENT_3D('',#494,#397,#398);
#355=AXIS2_PLACEMENT_3D('',#498,#400,#401);
#356=AXIS2_PLACEMENT_3D('',#504,#404,#405);
#357=AXIS2_PLACEMENT_3D('',#508,#407,#408);
#358=AXIS2_PLACEMENT_3D('',#510,#410,#411);
#359=AXIS2_PLACEMENT_3D('',#516,#415,#416);
#360=AXIS2_PLACEMENT_3D('',#518,#417,#418);
#361=AXIS2_PLACEMENT_3D('',#520,#420,#421);
#362=AXIS2_PLACEMENT_3D('',#524,#424,#425);
#363=AXIS2_PLACEMENT_3D('',#526,#426,#427);
#364=AXIS2_PLACEMENT_3D('',#528,#429,#430);
#365=AXIS2_PLACEMENT_3D('',#532,#433,#434);
#366=AXIS2_PLACEMENT_3D('',#534,#435,#436);
#367=AXIS2_PLACEMENT_3D('',#536,#438,#439);
#368=AXIS2_PLACEMENT_3D('',#540,#442,#443);
#369=AXIS2_PLACEMENT_3D('',#544,#446,#447);
#370=AXIS2_PLACEMENT_3D('',#546,#448,#449);
#371=AXIS2_PLACEMENT_3D('',#548,#451,#452);
#372=AXIS2_PLACEMENT_3D('',#552,#455,#456);
#373=AXIS2_PLACEMENT_3D('',#554,#457,#458);
#374=AXIS2_PLACEMENT_3D('',#556,#460,#461);
#375=AXIS2_PLACEMENT_3D('',#560,#464,#465);
#376=AXIS2_PLACEMENT_3D('',#564,#468,#469);
#377=AXIS2_PLACEMENT_3D('',#565,#470,#471);
#378=AXIS2_PLACEMENT_3D('',#566,#472,#473);
#379=DIRECTION('axis',(0.,0.,1.));
#380=DIRECTION('refdir',(1.,0.,0.));
#381=DIRECTION('center_axis',(0.,0.,1.));
#382=DIRECTION('ref_axis',(-1.,0.,0.));
#383=DIRECTION('center_axis',(0.,0.,1.));
#384=DIRECTION('ref_axis',(-1.,0.,0.));
#385=DIRECTION('',(0.,0.,1.));
#386=DIRECTION('center_axis',(0.,0.,-1.));
#387=DIRECTION('ref_axis',(-1.,0.,0.));
#388=DIRECTION('center_axis',(0.,0.,1.));
#389=DIRECTION('ref_axis',(1.,0.,0.));
#390=DIRECTION('',(5.60364933564748E-16,-1.,0.));
#391=DIRECTION('center_axis',(0.,0.,1.));
#392=DIRECTION('ref_axis',(3.55271367880051E-15,1.,0.));
#393=DIRECTION('',(-1.,2.22044604925031E-16,0.));
#394=DIRECTION('center_axis',(0.,0.,1.));
#395=DIRECTION('ref_axis',(1.,0.,0.));
#396=DIRECTION('',(1.11022302462516E-16,1.,0.));
#397=DIRECTION('center_axis',(0.,0.,1.));
#398=DIRECTION('ref_axis',(-1.77635683940025E-15,-1.,0.));
#399=DIRECTION('',(1.,3.33066907387547E-16,0.));
#400=DIRECTION('center_axis',(0.,0.,1.));
#401=DIRECTION('ref_axis',(-1.,0.,0.));
#402=DIRECTION('',(-5.60364933564747E-16,-1.,0.));
#403=DIRECTION('',(-1.,2.22044604925031E-16,0.));
#404=DIRECTION('center_axis',(0.,0.,-1.));
#405=DIRECTION('ref_axis',(4.44089209850063E-16,1.,0.));
#406=DIRECTION('',(3.3643121958338E-16,-1.,0.));
#407=DIRECTION('center_axis',(0.,0.,-1.));
#408=DIRECTION('ref_axis',(-1.,-1.11022302462516E-16,0.));
#409=DIRECTION('',(1.,2.22044604925031E-16,0.));
#410=DIRECTION('center_axis',(2.22044604925031E-16,1.,0.));
#411=DIRECTION('ref_axis',(0.,0.,1.));
#412=DIRECTION('',(1.,-2.22044604925031E-16,0.));
#413=DIRECTION('',(0.,0.,1.));
#414=DIRECTION('',(0.,0.,-1.));
#415=DIRECTION('center_axis',(0.,0.,1.));
#416=DIRECTION('ref_axis',(1.,0.,0.));
#417=DIRECTION('center_axis',(0.,0.,-1.));
#418=DIRECTION('ref_axis',(1.,0.,0.));
#419=DIRECTION('',(0.,0.,1.));
#420=DIRECTION('center_axis',(1.,-1.11022302462516E-16,0.));
#421=DIRECTION('ref_axis',(0.,0.,-1.));
#422=DIRECTION('',(-1.11022302462516E-16,-1.,0.));
#423=DIRECTION('',(0.,0.,1.));
#424=DIRECTION('center_axis',(0.,0.,1.));
#425=DIRECTION('ref_axis',(-1.77635683940025E-15,-1.,0.));
#426=DIRECTION('center_axis',(0.,0.,-1.));
#427=DIRECTION('ref_axis',(-1.77635683940025E-15,-1.,0.));
#428=DIRECTION('',(0.,0.,1.));
#429=DIRECTION('center_axis',(3.33066907387547E-16,-1.,0.));
#430=DIRECTION('ref_axis',(0.,0.,-1.));
#431=DIRECTION('',(-1.,-3.33066907387547E-16,0.));
#432=DIRECTION('',(0.,0.,1.));
#433=DIRECTION('center_axis',(0.,0.,1.));
#434=DIRECTION('ref_axis',(-1.,0.,0.));
#435=DIRECTION('center_axis',(0.,0.,-1.));
#436=DIRECTION('ref_axis',(-1.,0.,0.));
#437=DIRECTION('',(0.,0.,1.));
#438=DIRECTION('center_axis',(-1.,5.60364933564747E-16,0.));
#439=DIRECTION('ref_axis',(0.,0.,1.));
#440=DIRECTION('',(5.60364933564747E-16,1.,0.));
#441=DIRECTION('',(0.,0.,1.));
#442=DIRECTION('center_axis',(2.22044604925031E-16,1.,0.));
#443=DIRECTION('ref_axis',(0.,0.,1.));
#444=DIRECTION('',(1.,-2.22044604925031E-16,0.));
#445=DIRECTION('',(0.,0.,1.));
#446=DIRECTION('center_axis',(0.,0.,1.));
#447=DIRECTION('ref_axis',(4.44089209850063E-16,1.,0.));
#448=DIRECTION('center_axis',(0.,0.,1.));
#449=DIRECTION('ref_axis',(4.44089209850063E-16,1.,0.));
#450=DIRECTION('',(0.,0.,1.));
#451=DIRECTION('center_axis',(-1.,-3.3643121958338E-16,0.));
#452=DIRECTION('ref_axis',(0.,0.,1.));
#453=DIRECTION('',(-3.3643121958338E-16,1.,0.));
#454=DIRECTION('',(0.,0.,1.));
#455=DIRECTION('center_axis',(0.,0.,1.));
#456=DIRECTION('ref_axis',(-1.,-1.11022302462516E-16,0.));
#457=DIRECTION('center_axis',(0.,0.,1.));
#458=DIRECTION('ref_axis',(-1.,-1.11022302462516E-16,0.));
#459=DIRECTION('',(0.,0.,1.));
#460=DIRECTION('center_axis',(2.22044604925031E-16,-1.,0.));
#461=DIRECTION('ref_axis',(0.,0.,-1.));
#462=DIRECTION('',(-1.,-2.22044604925031E-16,0.));
#463=DIRECTION('',(0.,0.,1.));
#464=DIRECTION('center_axis',(-1.,-5.60364933564748E-16,0.));
#465=DIRECTION('ref_axis',(0.,0.,1.));
#466=DIRECTION('',(-5.60364933564748E-16,1.,0.));
#467=DIRECTION('',(0.,0.,1.));
#468=DIRECTION('center_axis',(0.,0.,1.));
#469=DIRECTION('ref_axis',(3.55271367880051E-15,1.,0.));
#470=DIRECTION('center_axis',(0.,0.,-1.));
#471=DIRECTION('ref_axis',(3.55271367880051E-15,1.,0.));
#472=DIRECTION('center_axis',(0.,0.,1.));
#473=DIRECTION('ref_axis',(1.,0.,0.));
#474=CARTESIAN_POINT('',(0.,0.,0.));
#475=CARTESIAN_POINT('Origin',(0.,0.,0.));
#476=CARTESIAN_POINT('',(4.5,5.51091059616309E-16,-0.5));
#477=CARTESIAN_POINT('Origin',(0.,0.,-0.5));
#478=CARTESIAN_POINT('',(4.5,5.51091059616309E-16,0.5));
#479=CARTESIAN_POINT('',(4.5,5.51091059616309E-16,0.));
#480=CARTESIAN_POINT('Origin',(0.,0.,0.5));
#481=CARTESIAN_POINT('Origin',(-1.52561451192583,6.93889390390723E-16,-0.5));
#482=CARTESIAN_POINT('',(-22.5,20.,-0.5));
#483=CARTESIAN_POINT('',(-22.5,4.15,-0.5));
#484=CARTESIAN_POINT('',(-22.5,20.,-0.5));
#485=CARTESIAN_POINT('',(-20.,22.5,-0.5));
#486=CARTESIAN_POINT('Origin',(-20.,20.,-0.5));
#487=CARTESIAN_POINT('',(20.,22.5,-0.5));
#488=CARTESIAN_POINT('',(20.,22.5,-0.5));
#489=CARTESIAN_POINT('',(22.5,20.,-0.5));
#490=CARTESIAN_POINT('Origin',(20.,20.,-0.5));
#491=CARTESIAN_POINT('',(22.5,-20.,-0.5));
#492=CARTESIAN_POINT('',(22.5,-20.,-0.5));
#493=CARTESIAN_POINT('',(20.,-22.5,-0.5));
#494=CARTESIAN_POINT('Origin',(20.,-20.,-0.5));
#495=CARTESIAN_POINT('',(-20.,-22.5,-0.5));
#496=CARTESIAN_POINT('',(-20.,-22.5,-0.5));
#497=CARTESIAN_POINT('',(-22.5,-20.,-0.5));
#498=CARTESIAN_POINT('Origin',(-20.,-20.,-0.5));
#499=CARTESIAN_POINT('',(-22.5,-4.15,-0.5));
#500=CARTESIAN_POINT('',(-22.5,-4.15,-0.5));
#501=CARTESIAN_POINT('',(-9.99999999999999,-4.15,-0.5));
#502=CARTESIAN_POINT('',(-9.99999999999999,-4.15,-0.5));
#503=CARTESIAN_POINT('',(-7.49999999999999,-1.65,-0.5));
#504=CARTESIAN_POINT('Origin',(-9.99999999999999,-1.65,-0.5));
#505=CARTESIAN_POINT('',(-7.49999999999999,1.65,-0.5));
#506=CARTESIAN_POINT('',(-7.49999999999999,1.65,-0.5));
#507=CARTESIAN_POINT('',(-9.99999999999999,4.15,-0.5));
#508=CARTESIAN_POINT('Origin',(-9.99999999999999,1.65,-0.5));
#509=CARTESIAN_POINT('',(-22.5,4.15,-0.5));
#510=CARTESIAN_POINT('Origin',(-20.,22.5,0.));
#511=CARTESIAN_POINT('',(-20.,22.5,0.5));
#512=CARTESIAN_POINT('',(20.,22.5,0.5));
#513=CARTESIAN_POINT('',(20.,22.5,0.5));
#514=CARTESIAN_POINT('',(20.,22.5,0.));
#515=CARTESIAN_POINT('',(-20.,22.5,0.));
#516=CARTESIAN_POINT('Origin',(20.,20.,0.));
#517=CARTESIAN_POINT('',(22.5,20.,0.5));
#518=CARTESIAN_POINT('Origin',(20.,20.,0.5));
#519=CARTESIAN_POINT('',(22.5,20.,0.));
#520=CARTESIAN_POINT('Origin',(22.5,20.,0.));
#521=CARTESIAN_POINT('',(22.5,-20.,0.5));
#522=CARTESIAN_POINT('',(22.5,-20.,0.5));
#523=CARTESIAN_POINT('',(22.5,-20.,0.));
#524=CARTESIAN_POINT('Origin',(20.,-20.,0.));
#525=CARTESIAN_POINT('',(20.,-22.5,0.5));
#526=CARTESIAN_POINT('Origin',(20.,-20.,0.5));
#527=CARTESIAN_POINT('',(20.,-22.5,0.));
#528=CARTESIAN_POINT('Origin',(20.,-22.5,0.));
#529=CARTESIAN_POINT('',(-20.,-22.5,0.5));
#530=CARTESIAN_POINT('',(-20.,-22.5,0.5));
#531=CARTESIAN_POINT('',(-20.,-22.5,0.));
#532=CARTESIAN_POINT('Origin',(-20.,-20.,0.));
#533=CARTESIAN_POINT('',(-22.5,-20.,0.5));
#534=CARTESIAN_POINT('Origin',(-20.,-20.,0.5));
#535=CARTESIAN_POINT('',(-22.5,-20.,0.));
#536=CARTESIAN_POINT('Origin',(-22.5,-20.,0.));
#537=CARTESIAN_POINT('',(-22.5,-4.15,0.5));
#538=CARTESIAN_POINT('',(-22.5,-4.15,0.5));
#539=CARTESIAN_POINT('',(-22.5,-4.15,0.));
#540=CARTESIAN_POINT('Origin',(-22.5,-4.15,0.));
#541=CARTESIAN_POINT('',(-9.99999999999999,-4.15,0.5));
#542=CARTESIAN_POINT('',(-9.99999999999999,-4.15,0.5));
#543=CARTESIAN_POINT('',(-9.99999999999999,-4.15,0.));
#544=CARTESIAN_POINT('Origin',(-9.99999999999999,-1.65,0.));
#545=CARTESIAN_POINT('',(-7.49999999999999,-1.65,0.5));
#546=CARTESIAN_POINT('Origin',(-9.99999999999999,-1.65,0.5));
#547=CARTESIAN_POINT('',(-7.49999999999999,-1.65,0.));
#548=CARTESIAN_POINT('Origin',(-7.49999999999999,-1.65,0.));
#549=CARTESIAN_POINT('',(-7.49999999999999,1.65,0.5));
#550=CARTESIAN_POINT('',(-7.49999999999999,1.65,0.5));
#551=CARTESIAN_POINT('',(-7.49999999999999,1.65,0.));
#552=CARTESIAN_POINT('Origin',(-9.99999999999999,1.65,0.));
#553=CARTESIAN_POINT('',(-9.99999999999999,4.15,0.5));
#554=CARTESIAN_POINT('Origin',(-9.99999999999999,1.65,0.5));
#555=CARTESIAN_POINT('',(-9.99999999999999,4.15,0.));
#556=CARTESIAN_POINT('Origin',(-9.99999999999999,4.15,0.));
#557=CARTESIAN_POINT('',(-22.5,4.15,0.5));
#558=CARTESIAN_POINT('',(-22.5,4.15,0.5));
#559=CARTESIAN_POINT('',(-22.5,4.15,0.));
#560=CARTESIAN_POINT('Origin',(-22.5,4.15,0.));
#561=CARTESIAN_POINT('',(-22.5,20.,0.5));
#562=CARTESIAN_POINT('',(-22.5,20.,0.5));
#563=CARTESIAN_POINT('',(-22.5,20.,0.));
#564=CARTESIAN_POINT('Origin',(-20.,20.,0.));
#565=CARTESIAN_POINT('Origin',(-20.,20.,0.5));
#566=CARTESIAN_POINT('Origin',(-1.52561451192583,5.55111512312578E-16,0.5));
#567=UNCERTAINTY_MEASURE_WITH_UNIT(LENGTH_MEASURE(0.01),#571,
'DISTANCE_ACCURACY_VALUE',
'Maximum model space distance between geometric entities at asserted c
onnectivities');
#568=UNCERTAINTY_MEASURE_WITH_UNIT(LENGTH_MEASURE(0.01),#571,
'DISTANCE_ACCURACY_VALUE',
'Maximum model space distance between geometric entities at asserted c
onnectivities');
#569=(
GEOMETRIC_REPRESENTATION_CONTEXT(3)
GLOBAL_UNCERTAINTY_ASSIGNED_CONTEXT((#567))
GLOBAL_UNIT_ASSIGNED_CONTEXT((#571,#573,#574))
REPRESENTATION_CONTEXT('','3D')
);
#570=(
GEOMETRIC_REPRESENTATION_CONTEXT(3)
GLOBAL_UNCERTAINTY_ASSIGNED_CONTEXT((#568))
GLOBAL_UNIT_ASSIGNED_CONTEXT((#571,#573,#574))
REPRESENTATION_CONTEXT('','3D')
);
#571=(
LENGTH_UNIT()
NAMED_UNIT(*)
SI_UNIT(.MILLI.,.METRE.)
);
#572=(
LENGTH_UNIT()
NAMED_UNIT(*)
SI_UNIT(.CENTI.,.METRE.)
);
#573=(
NAMED_UNIT(*)
PLANE_ANGLE_UNIT()
SI_UNIT($,.RADIAN.)
);
#574=(
NAMED_UNIT(*)
SI_UNIT($,.STERADIAN.)
SOLID_ANGLE_UNIT()
);
#575=SHAPE_DEFINITION_REPRESENTATION(#576,#577);
#576=PRODUCT_DEFINITION_SHAPE('',$,#579);
#577=SHAPE_REPRESENTATION('',(#347),#569);
#578=DESIGN_CONTEXT('part definition',#583,'design');
#579=PRODUCT_DEFINITION('24.1116-0FZ.000','00019951',#580,#578);
#580=PRODUCT_DEFINITION_FORMATION('',$,#585);
#581=PRODUCT_RELATED_PRODUCT_CATEGORY('00019951','00019951',(#585));
#582=APPLICATION_PROTOCOL_DEFINITION('international standard',
'ap203_configuration_controlled_3d_design_of_mechanical_parts_and_asse
mblies_mim_lf',2004,#583);
#583=APPLICATION_CONTEXT(
'Configuration Controlled 3D Design of Mechanical Parts and Assemblies');
#584=MECHANICAL_CONTEXT('part definition',#583,'mechanical');
#585=PRODUCT('24.1116-0FZ.000','00019951','Dichtplatte 45 mit Schlitz',
(#584));
#586=PRESENTATION_STYLE_ASSIGNMENT((#587));
#587=SURFACE_STYLE_USAGE(.BOTH.,#590);
#588=SURFACE_STYLE_RENDERING_WITH_PROPERTIES($,#594,(#589));
#589=SURFACE_STYLE_TRANSPARENT(0.360000014305115);
#590=SURFACE_SIDE_STYLE('',(#591,#588));
#591=SURFACE_STYLE_FILL_AREA(#592);
#592=FILL_AREA_STYLE('',(#593));
#593=FILL_AREA_STYLE_COLOUR('',#594);
#594=COLOUR_RGB('',0.450980392156863,0.27843137254902,0.0392156862745098);
ENDSEC;
END-ISO-10303-21;
