ISO-10303-21;
HEADER;
/* Generated by software containing ST-Developer
 * from STEP Tools, Inc. (www.steptools.com) 
 */

FILE_DESCRIPTION(
/* description */ ('Senkkopfschraube ISO 10642 - M5 x 35 rostfrei'),
/* implementation_level */ '2;1');

FILE_NAME(
/* name */ '\\\\fileserver\\Daten2\\STEP Daten fuer PIM\\212215-1.step',

/* time_stamp */ '2021-08-27T14:00:07+02:00',
/* author */ ('Administrator'),
/* organization */ (''),
/* preprocessor_version */ 'ST-DEVELOPER v18.1',
/* originating_system */ 'Autodesk Inventor 2021',
/* authorisation */ '');

FILE_SCHEMA (('AUTOMOTIVE_DESIGN { 1 0 10303 214 3 1 1 }'));
ENDSEC;

DATA;
#10=MECHANICAL_DESIGN_GEOMETRIC_PRESENTATION_REPRESENTATION('',(#13),#375);
#11=SHAPE_REPRESENTATION_RELATIONSHIP('SRR','None',#382,#12);
#12=ADVANCED_BREP_SHAPE_REPRESENTATION('',(#14),#374);
#13=STYLED_ITEM('',(#394),#14);
#14=MANIFOLD_SOLID_BREP('Volumenk\X\F6rper1',#216);
#15=FACE_BOUND('',#51,.T.);
#16=CYLINDRICAL_SURFACE('',#247,2.50000000000001);
#17=CYLINDRICAL_SURFACE('',#251,5.00000000000001);
#18=CONICAL_SURFACE('',#245,2.37500000000001,0.785398163397459);
#19=CONICAL_SURFACE('',#249,3.75000000000001,0.785398163397449);
#20=CIRCLE('',#244,2.25000000000001);
#21=CIRCLE('',#246,2.50000000000001);
#22=CIRCLE('',#248,2.50000000000002);
#23=CIRCLE('',#250,5.00000000000001);
#24=CIRCLE('',#252,5.00000000000001);
#25=FACE_OUTER_BOUND('',#38,.T.);
#26=FACE_OUTER_BOUND('',#39,.T.);
#27=FACE_OUTER_BOUND('',#40,.T.);
#28=FACE_OUTER_BOUND('',#41,.T.);
#29=FACE_OUTER_BOUND('',#42,.T.);
#30=FACE_OUTER_BOUND('',#43,.T.);
#31=FACE_OUTER_BOUND('',#44,.T.);
#32=FACE_OUTER_BOUND('',#45,.T.);
#33=FACE_OUTER_BOUND('',#46,.T.);
#34=FACE_OUTER_BOUND('',#47,.T.);
#35=FACE_OUTER_BOUND('',#48,.T.);
#36=FACE_OUTER_BOUND('',#49,.T.);
#37=FACE_OUTER_BOUND('',#50,.T.);
#38=EDGE_LOOP('',(#140,#141,#142,#143));
#39=EDGE_LOOP('',(#144,#145,#146,#147));
#40=EDGE_LOOP('',(#148,#149,#150,#151));
#41=EDGE_LOOP('',(#152,#153,#154,#155));
#42=EDGE_LOOP('',(#156,#157,#158,#159));
#43=EDGE_LOOP('',(#160,#161,#162,#163));
#44=EDGE_LOOP('',(#164,#165,#166,#167,#168,#169));
#45=EDGE_LOOP('',(#170));
#46=EDGE_LOOP('',(#171,#172,#173,#174));
#47=EDGE_LOOP('',(#175,#176,#177,#178));
#48=EDGE_LOOP('',(#179,#180,#181,#182));
#49=EDGE_LOOP('',(#183,#184,#185,#186));
#50=EDGE_LOOP('',(#187));
#51=EDGE_LOOP('',(#188,#189,#190,#191,#192,#193));
#52=LINE('',#318,#74);
#53=LINE('',#320,#75);
#54=LINE('',#322,#76);
#55=LINE('',#323,#77);
#56=LINE('',#326,#78);
#57=LINE('',#328,#79);
#58=LINE('',#329,#80);
#59=LINE('',#332,#81);
#60=LINE('',#334,#82);
#61=LINE('',#335,#83);
#62=LINE('',#338,#84);
#63=LINE('',#340,#85);
#64=LINE('',#341,#86);
#65=LINE('',#344,#87);
#66=LINE('',#346,#88);
#67=LINE('',#347,#89);
#68=LINE('',#349,#90);
#69=LINE('',#350,#91);
#70=LINE('',#358,#92);
#71=LINE('',#362,#93);
#72=LINE('',#366,#94);
#73=LINE('',#370,#95);
#74=VECTOR('',#258,1.73205080756888);
#75=VECTOR('',#259,2.3);
#76=VECTOR('',#260,1.73205080756888);
#77=VECTOR('',#261,2.3);
#78=VECTOR('',#264,1.73205080756888);
#79=VECTOR('',#265,1.73205080756888);
#80=VECTOR('',#266,2.3);
#81=VECTOR('',#269,1.73205080756888);
#82=VECTOR('',#270,1.73205080756888);
#83=VECTOR('',#271,2.3);
#84=VECTOR('',#274,1.73205080756888);
#85=VECTOR('',#275,1.73205080756888);
#86=VECTOR('',#276,2.3);
#87=VECTOR('',#279,1.73205080756888);
#88=VECTOR('',#280,1.73205080756888);
#89=VECTOR('',#281,2.3);
#90=VECTOR('',#284,1.73205080756888);
#91=VECTOR('',#285,1.73205080756888);
#92=VECTOR('',#296,2.37500000000001);
#93=VECTOR('',#301,2.50000000000001);
#94=VECTOR('',#306,3.75000000000001);
#95=VECTOR('',#311,5.00000000000001);
#96=VERTEX_POINT('',#316);
#97=VERTEX_POINT('',#317);
#98=VERTEX_POINT('',#319);
#99=VERTEX_POINT('',#321);
#100=VERTEX_POINT('',#325);
#101=VERTEX_POINT('',#327);
#102=VERTEX_POINT('',#331);
#103=VERTEX_POINT('',#333);
#104=VERTEX_POINT('',#337);
#105=VERTEX_POINT('',#339);
#106=VERTEX_POINT('',#343);
#107=VERTEX_POINT('',#345);
#108=VERTEX_POINT('',#353);
#109=VERTEX_POINT('',#356);
#110=VERTEX_POINT('',#360);
#111=VERTEX_POINT('',#364);
#112=VERTEX_POINT('',#368);
#113=EDGE_CURVE('',#96,#97,#52,.T.);
#114=EDGE_CURVE('',#98,#96,#53,.T.);
#115=EDGE_CURVE('',#99,#98,#54,.T.);
#116=EDGE_CURVE('',#99,#97,#55,.T.);
#117=EDGE_CURVE('',#97,#100,#56,.T.);
#118=EDGE_CURVE('',#101,#99,#57,.T.);
#119=EDGE_CURVE('',#101,#100,#58,.T.);
#120=EDGE_CURVE('',#100,#102,#59,.T.);
#121=EDGE_CURVE('',#103,#101,#60,.T.);
#122=EDGE_CURVE('',#103,#102,#61,.T.);
#123=EDGE_CURVE('',#102,#104,#62,.T.);
#124=EDGE_CURVE('',#105,#103,#63,.T.);
#125=EDGE_CURVE('',#105,#104,#64,.T.);
#126=EDGE_CURVE('',#104,#106,#65,.T.);
#127=EDGE_CURVE('',#107,#105,#66,.T.);
#128=EDGE_CURVE('',#107,#106,#67,.T.);
#129=EDGE_CURVE('',#106,#96,#68,.T.);
#130=EDGE_CURVE('',#98,#107,#69,.T.);
#131=EDGE_CURVE('',#108,#108,#20,.T.);
#132=EDGE_CURVE('',#109,#109,#21,.T.);
#133=EDGE_CURVE('',#109,#108,#70,.T.);
#134=EDGE_CURVE('',#110,#110,#22,.T.);
#135=EDGE_CURVE('',#110,#109,#71,.T.);
#136=EDGE_CURVE('',#111,#111,#23,.T.);
#137=EDGE_CURVE('',#111,#110,#72,.T.);
#138=EDGE_CURVE('',#112,#112,#24,.T.);
#139=EDGE_CURVE('',#112,#111,#73,.T.);
#140=ORIENTED_EDGE('',*,*,#113,.F.);
#141=ORIENTED_EDGE('',*,*,#114,.F.);
#142=ORIENTED_EDGE('',*,*,#115,.F.);
#143=ORIENTED_EDGE('',*,*,#116,.T.);
#144=ORIENTED_EDGE('',*,*,#117,.F.);
#145=ORIENTED_EDGE('',*,*,#116,.F.);
#146=ORIENTED_EDGE('',*,*,#118,.F.);
#147=ORIENTED_EDGE('',*,*,#119,.T.);
#148=ORIENTED_EDGE('',*,*,#120,.F.);
#149=ORIENTED_EDGE('',*,*,#119,.F.);
#150=ORIENTED_EDGE('',*,*,#121,.F.);
#151=ORIENTED_EDGE('',*,*,#122,.T.);
#152=ORIENTED_EDGE('',*,*,#123,.F.);
#153=ORIENTED_EDGE('',*,*,#122,.F.);
#154=ORIENTED_EDGE('',*,*,#124,.F.);
#155=ORIENTED_EDGE('',*,*,#125,.T.);
#156=ORIENTED_EDGE('',*,*,#126,.F.);
#157=ORIENTED_EDGE('',*,*,#125,.F.);
#158=ORIENTED_EDGE('',*,*,#127,.F.);
#159=ORIENTED_EDGE('',*,*,#128,.T.);
#160=ORIENTED_EDGE('',*,*,#129,.F.);
#161=ORIENTED_EDGE('',*,*,#128,.F.);
#162=ORIENTED_EDGE('',*,*,#130,.F.);
#163=ORIENTED_EDGE('',*,*,#114,.T.);
#164=ORIENTED_EDGE('',*,*,#113,.T.);
#165=ORIENTED_EDGE('',*,*,#117,.T.);
#166=ORIENTED_EDGE('',*,*,#120,.T.);
#167=ORIENTED_EDGE('',*,*,#123,.T.);
#168=ORIENTED_EDGE('',*,*,#126,.T.);
#169=ORIENTED_EDGE('',*,*,#129,.T.);
#170=ORIENTED_EDGE('',*,*,#131,.F.);
#171=ORIENTED_EDGE('',*,*,#132,.F.);
#172=ORIENTED_EDGE('',*,*,#133,.T.);
#173=ORIENTED_EDGE('',*,*,#131,.T.);
#174=ORIENTED_EDGE('',*,*,#133,.F.);
#175=ORIENTED_EDGE('',*,*,#134,.F.);
#176=ORIENTED_EDGE('',*,*,#135,.T.);
#177=ORIENTED_EDGE('',*,*,#132,.T.);
#178=ORIENTED_EDGE('',*,*,#135,.F.);
#179=ORIENTED_EDGE('',*,*,#136,.F.);
#180=ORIENTED_EDGE('',*,*,#137,.T.);
#181=ORIENTED_EDGE('',*,*,#134,.T.);
#182=ORIENTED_EDGE('',*,*,#137,.F.);
#183=ORIENTED_EDGE('',*,*,#138,.F.);
#184=ORIENTED_EDGE('',*,*,#139,.T.);
#185=ORIENTED_EDGE('',*,*,#136,.T.);
#186=ORIENTED_EDGE('',*,*,#139,.F.);
#187=ORIENTED_EDGE('',*,*,#138,.T.);
#188=ORIENTED_EDGE('',*,*,#115,.T.);
#189=ORIENTED_EDGE('',*,*,#130,.T.);
#190=ORIENTED_EDGE('',*,*,#127,.T.);
#191=ORIENTED_EDGE('',*,*,#124,.T.);
#192=ORIENTED_EDGE('',*,*,#121,.T.);
#193=ORIENTED_EDGE('',*,*,#118,.T.);
#194=PLANE('',#236);
#195=PLANE('',#237);
#196=PLANE('',#238);
#197=PLANE('',#239);
#198=PLANE('',#240);
#199=PLANE('',#241);
#200=PLANE('',#242);
#201=PLANE('',#243);
#202=PLANE('',#253);
#203=ADVANCED_FACE('',(#25),#194,.F.);
#204=ADVANCED_FACE('',(#26),#195,.F.);
#205=ADVANCED_FACE('',(#27),#196,.F.);
#206=ADVANCED_FACE('',(#28),#197,.F.);
#207=ADVANCED_FACE('',(#29),#198,.F.);
#208=ADVANCED_FACE('',(#30),#199,.F.);
#209=ADVANCED_FACE('',(#31),#200,.T.);
#210=ADVANCED_FACE('',(#32),#201,.T.);
#211=ADVANCED_FACE('',(#33),#18,.T.);
#212=ADVANCED_FACE('',(#34),#16,.T.);
#213=ADVANCED_FACE('',(#35),#19,.T.);
#214=ADVANCED_FACE('',(#36),#17,.T.);
#215=ADVANCED_FACE('',(#37,#15),#202,.T.);
#216=CLOSED_SHELL('',(#203,#204,#205,#206,#207,#208,#209,#210,#211,#212,
#213,#214,#215));
#217=DERIVED_UNIT_ELEMENT(#219,1.);
#218=DERIVED_UNIT_ELEMENT(#377,-3.);
#219=(
MASS_UNIT()
NAMED_UNIT(*)
SI_UNIT($,.GRAM.)
);
#220=DERIVED_UNIT((#217,#218));
#221=MEASURE_REPRESENTATION_ITEM('density measure',
POSITIVE_RATIO_MEASURE(7.75),#220);
#222=PROPERTY_DEFINITION_REPRESENTATION(#227,#224);
#223=PROPERTY_DEFINITION_REPRESENTATION(#228,#225);
#224=REPRESENTATION('material name',(#226),#374);
#225=REPRESENTATION('density',(#221),#374);
#226=DESCRIPTIVE_REPRESENTATION_ITEM('V2A','V2A');
#227=PROPERTY_DEFINITION('material property','material name',#384);
#228=PROPERTY_DEFINITION('material property','density of part',#384);
#229=DATE_TIME_ROLE('creation_date');
#230=APPLIED_DATE_AND_TIME_ASSIGNMENT(#231,#229,(#384));
#231=DATE_AND_TIME(#232,#233);
#232=CALENDAR_DATE(2016,25,7);
#233=LOCAL_TIME(0,0,0.,#234);
#234=COORDINATED_UNIVERSAL_TIME_OFFSET(0,0,.BEHIND.);
#235=AXIS2_PLACEMENT_3D('placement',#314,#254,#255);
#236=AXIS2_PLACEMENT_3D('',#315,#256,#257);
#237=AXIS2_PLACEMENT_3D('',#324,#262,#263);
#238=AXIS2_PLACEMENT_3D('',#330,#267,#268);
#239=AXIS2_PLACEMENT_3D('',#336,#272,#273);
#240=AXIS2_PLACEMENT_3D('',#342,#277,#278);
#241=AXIS2_PLACEMENT_3D('',#348,#282,#283);
#242=AXIS2_PLACEMENT_3D('',#351,#286,#287);
#243=AXIS2_PLACEMENT_3D('',#352,#288,#289);
#244=AXIS2_PLACEMENT_3D('',#354,#290,#291);
#245=AXIS2_PLACEMENT_3D('',#355,#292,#293);
#246=AXIS2_PLACEMENT_3D('',#357,#294,#295);
#247=AXIS2_PLACEMENT_3D('',#359,#297,#298);
#248=AXIS2_PLACEMENT_3D('',#361,#299,#300);
#249=AXIS2_PLACEMENT_3D('',#363,#302,#303);
#250=AXIS2_PLACEMENT_3D('',#365,#304,#305);
#251=AXIS2_PLACEMENT_3D('',#367,#307,#308);
#252=AXIS2_PLACEMENT_3D('',#369,#309,#310);
#253=AXIS2_PLACEMENT_3D('',#371,#312,#313);
#254=DIRECTION('axis',(0.,0.,1.));
#255=DIRECTION('refdir',(1.,0.,0.));
#256=DIRECTION('center_axis',(0.5,1.567633E-16,-0.866025403784439));
#257=DIRECTION('ref_axis',(-0.866025403784439,1.23259516440783E-32,-0.5));
#258=DIRECTION('',(-0.866025403784439,0.,-0.5));
#259=DIRECTION('',(0.,-1.,0.));
#260=DIRECTION('',(0.866025403784439,-9.191843E-17,0.5));
#261=DIRECTION('',(0.,-1.,0.));
#262=DIRECTION('center_axis',(-0.5,1.567633E-16,-0.866025403784439));
#263=DIRECTION('ref_axis',(-0.866025403784439,0.,0.5));
#264=DIRECTION('',(-0.866025403784439,0.,0.5));
#265=DIRECTION('',(0.866025403784439,9.191843E-17,-0.5));
#266=DIRECTION('',(0.,-1.,0.));
#267=DIRECTION('center_axis',(-1.,0.,0.));
#268=DIRECTION('ref_axis',(0.,0.,1.));
#269=DIRECTION('',(0.,0.,1.));
#270=DIRECTION('',(0.,0.,-1.));
#271=DIRECTION('',(0.,-1.,0.));
#272=DIRECTION('center_axis',(-0.5,-1.567633E-16,0.866025403784439));
#273=DIRECTION('ref_axis',(0.866025403784439,0.,0.5));
#274=DIRECTION('',(0.866025403784439,0.,0.5));
#275=DIRECTION('',(-0.866025403784439,9.191843E-17,-0.5));
#276=DIRECTION('',(0.,-1.,0.));
#277=DIRECTION('center_axis',(0.5,-1.567633E-16,0.866025403784439));
#278=DIRECTION('ref_axis',(0.866025403784439,1.23259516440783E-32,-0.5));
#279=DIRECTION('',(0.866025403784439,0.,-0.5));
#280=DIRECTION('',(-0.866025403784439,-9.191843E-17,0.5));
#281=DIRECTION('',(0.,-1.,0.));
#282=DIRECTION('center_axis',(1.,0.,0.));
#283=DIRECTION('ref_axis',(0.,0.,-1.));
#284=DIRECTION('',(0.,0.,-1.));
#285=DIRECTION('',(0.,0.,1.));
#286=DIRECTION('center_axis',(0.,1.,0.));
#287=DIRECTION('ref_axis',(0.,0.,1.));
#288=DIRECTION('center_axis',(0.,-1.,0.));
#289=DIRECTION('ref_axis',(0.,0.,-1.));
#290=DIRECTION('center_axis',(0.,1.,0.));
#291=DIRECTION('ref_axis',(0.,0.,1.));
#292=DIRECTION('center_axis',(0.,1.,1.838369E-16));
#293=DIRECTION('ref_axis',(0.,-1.838369E-16,1.));
#294=DIRECTION('center_axis',(0.,1.,0.));
#295=DIRECTION('ref_axis',(0.,0.,1.));
#296=DIRECTION('',(8.65956056235503E-17,-0.70710678118654,0.707106781186555));
#297=DIRECTION('center_axis',(0.,1.,1.838369E-16));
#298=DIRECTION('ref_axis',(0.,-1.838369E-16,1.));
#299=DIRECTION('center_axis',(0.,1.,0.));
#300=DIRECTION('ref_axis',(0.,0.,1.));
#301=DIRECTION('',(0.,-1.,-1.838369E-16));
#302=DIRECTION('center_axis',(0.,1.,1.838369E-16));
#303=DIRECTION('ref_axis',(0.,-1.838369E-16,1.));
#304=DIRECTION('center_axis',(0.,1.,0.));
#305=DIRECTION('ref_axis',(0.,0.,1.));
#306=DIRECTION('',(8.65956056235494E-17,-0.707106781186548,0.707106781186548));
#307=DIRECTION('center_axis',(0.,1.,1.838369E-16));
#308=DIRECTION('ref_axis',(0.,-1.838369E-16,1.));
#309=DIRECTION('center_axis',(0.,1.,0.));
#310=DIRECTION('ref_axis',(0.,0.,1.));
#311=DIRECTION('',(0.,-1.,-1.838369E-16));
#312=DIRECTION('center_axis',(0.,1.,0.));
#313=DIRECTION('ref_axis',(0.,0.,1.));
#314=CARTESIAN_POINT('',(0.,0.,0.));
#315=CARTESIAN_POINT('Origin',(1.5,6.187995E-16,-0.866025403784438));
#316=CARTESIAN_POINT('',(1.5,-2.3,-0.866025403784438));
#317=CARTESIAN_POINT('',(-4.336809E-16,-2.3,-1.73205080756888));
#318=CARTESIAN_POINT('',(1.5,-2.3,-0.866025403784438));
#319=CARTESIAN_POINT('',(1.5,6.187995E-16,-0.866025403784438));
#320=CARTESIAN_POINT('',(1.5,6.187995E-16,-0.866025403784438));
#321=CARTESIAN_POINT('',(-4.336809E-16,7.780069E-16,-1.73205080756888));
#322=CARTESIAN_POINT('',(-4.336809E-16,7.780069E-16,-1.73205080756888));
#323=CARTESIAN_POINT('',(-4.336809E-16,7.780069E-16,-1.73205080756888));
#324=CARTESIAN_POINT('Origin',(-4.336809E-16,7.780069E-16,-1.73205080756888));
#325=CARTESIAN_POINT('',(-1.5,-2.3,-0.866025403784439));
#326=CARTESIAN_POINT('',(-4.336809E-16,-2.3,-1.73205080756888));
#327=CARTESIAN_POINT('',(-1.5,6.187995E-16,-0.866025403784438));
#328=CARTESIAN_POINT('',(-1.5,6.187995E-16,-0.866025403784438));
#329=CARTESIAN_POINT('',(-1.5,6.187995E-16,-0.866025403784438));
#330=CARTESIAN_POINT('Origin',(-1.5,6.187995E-16,-0.866025403784438));
#331=CARTESIAN_POINT('',(-1.5,-2.3,0.866025403784438));
#332=CARTESIAN_POINT('',(-1.5,-2.3,-0.866025403784439));
#333=CARTESIAN_POINT('',(-1.5,3.003848E-16,0.866025403784438));
#334=CARTESIAN_POINT('',(-1.5,3.003848E-16,0.866025403784438));
#335=CARTESIAN_POINT('',(-1.5,3.003848E-16,0.866025403784438));
#336=CARTESIAN_POINT('Origin',(-1.5,3.003848E-16,0.866025403784438));
#337=CARTESIAN_POINT('',(-4.683753E-16,-2.3,1.73205080756888));
#338=CARTESIAN_POINT('',(-1.5,-2.3,0.866025403784438));
#339=CARTESIAN_POINT('',(-4.683753E-16,1.411774E-16,1.73205080756888));
#340=CARTESIAN_POINT('',(-4.683753E-16,1.411774E-16,1.73205080756888));
#341=CARTESIAN_POINT('',(-4.683753E-16,1.411774E-16,1.73205080756888));
#342=CARTESIAN_POINT('Origin',(-4.683753E-16,1.411774E-16,1.73205080756888));
#343=CARTESIAN_POINT('',(1.5,-2.3,0.866025403784439));
#344=CARTESIAN_POINT('',(-4.683753E-16,-2.3,1.73205080756888));
#345=CARTESIAN_POINT('',(1.5,3.003848E-16,0.866025403784439));
#346=CARTESIAN_POINT('',(1.5,3.003848E-16,0.866025403784439));
#347=CARTESIAN_POINT('',(1.5,3.003848E-16,0.866025403784439));
#348=CARTESIAN_POINT('Origin',(1.5,3.003848E-16,0.866025403784439));
#349=CARTESIAN_POINT('',(1.5,-2.3,0.866025403784439));
#350=CARTESIAN_POINT('',(1.5,6.187995E-16,-0.866025403784438));
#351=CARTESIAN_POINT('Origin',(6.938894E-17,-2.3,-4.857226E-16));
#352=CARTESIAN_POINT('Origin',(0.,-35.,1.125));
#353=CARTESIAN_POINT('',(-2.75545529808156E-16,-35.,-2.25000000000002));
#354=CARTESIAN_POINT('Origin',(0.,-35.,-6.43429E-15));
#355=CARTESIAN_POINT('Origin',(0.,-34.875,-6.41131E-15));
#356=CARTESIAN_POINT('',(-3.06161699786839E-16,-34.75,-2.50000000000002));
#357=CARTESIAN_POINT('Origin',(0.,-34.75,-6.388331E-15));
#358=CARTESIAN_POINT('',(-2.90853614797498E-16,-34.875,-2.37500000000002));
#359=CARTESIAN_POINT('Origin',(0.,-18.775,-3.451537E-15));
#360=CARTESIAN_POINT('',(-3.0616169978684E-16,-2.8,-2.50000000000001));
#361=CARTESIAN_POINT('Origin',(0.,-2.8,-5.147432E-16));
#362=CARTESIAN_POINT('',(-3.0616169978684E-16,-18.775,-2.50000000000002));
#363=CARTESIAN_POINT('Origin',(0.,-1.55,-2.849471E-16));
#364=CARTESIAN_POINT('',(-6.12323399573678E-16,-0.300000000000009,-5.00000000000001));
#365=CARTESIAN_POINT('Origin',(0.,-0.30000000000001,-5.515106E-17));
#366=CARTESIAN_POINT('',(-4.59242549680259E-16,-1.55,-3.75000000000001));
#367=CARTESIAN_POINT('Origin',(0.,-0.150000000000004,-2.757553E-17));
#368=CARTESIAN_POINT('',(-6.12323399573678E-16,2.75821032680312E-15,-5.00000000000001));
#369=CARTESIAN_POINT('Origin',(0.,9.191843E-16,1.6898E-31));
#370=CARTESIAN_POINT('',(-6.12323399573678E-16,-0.150000000000003,-5.00000000000001));
#371=CARTESIAN_POINT('Origin',(0.,-2.234079E-31,2.5));
#372=UNCERTAINTY_MEASURE_WITH_UNIT(LENGTH_MEASURE(0.01),#376,
'DISTANCE_ACCURACY_VALUE',
'Maximum model space distance between geometric entities at asserted c
onnectivities');
#373=UNCERTAINTY_MEASURE_WITH_UNIT(LENGTH_MEASURE(0.01),#376,
'DISTANCE_ACCURACY_VALUE',
'Maximum model space distance between geometric entities at asserted c
onnectivities');
#374=(
GEOMETRIC_REPRESENTATION_CONTEXT(3)
GLOBAL_UNCERTAINTY_ASSIGNED_CONTEXT((#372))
GLOBAL_UNIT_ASSIGNED_CONTEXT((#376,#378,#379))
REPRESENTATION_CONTEXT('','3D')
);
#375=(
GEOMETRIC_REPRESENTATION_CONTEXT(3)
GLOBAL_UNCERTAINTY_ASSIGNED_CONTEXT((#373))
GLOBAL_UNIT_ASSIGNED_CONTEXT((#376,#378,#379))
REPRESENTATION_CONTEXT('','3D')
);
#376=(
LENGTH_UNIT()
NAMED_UNIT(*)
SI_UNIT(.MILLI.,.METRE.)
);
#377=(
LENGTH_UNIT()
NAMED_UNIT(*)
SI_UNIT(.CENTI.,.METRE.)
);
#378=(
NAMED_UNIT(*)
PLANE_ANGLE_UNIT()
SI_UNIT($,.RADIAN.)
);
#379=(
NAMED_UNIT(*)
SI_UNIT($,.STERADIAN.)
SOLID_ANGLE_UNIT()
);
#380=SHAPE_DEFINITION_REPRESENTATION(#381,#382);
#381=PRODUCT_DEFINITION_SHAPE('',$,#384);
#382=SHAPE_REPRESENTATION('',(#235),#374);
#383=PRODUCT_DEFINITION_CONTEXT('part definition',#388,'design');
#384=PRODUCT_DEFINITION('leer','00238335',#385,#383);
#385=PRODUCT_DEFINITION_FORMATION('NoneNone',$,#390);
#386=PRODUCT_RELATED_PRODUCT_CATEGORY('00238335','00238335',(#390));
#387=APPLICATION_PROTOCOL_DEFINITION('international standard',
'automotive_design',2009,#388);
#388=APPLICATION_CONTEXT(
'Core Data for Automotive Mechanical Design Process');
#389=PRODUCT_CONTEXT('part definition',#388,'mechanical');
#390=PRODUCT('leer','00238335',
'Senkkopfschraube ISO 10642 - M5 x 35 rostfrei',(#389));
#391=SURFACE_STYLE_RENDERING_WITH_PROPERTIES($,#406,(#392));
#392=SURFACE_STYLE_TRANSPARENT(0.);
#393=PRESENTATION_STYLE_ASSIGNMENT((#395));
#394=PRESENTATION_STYLE_ASSIGNMENT((#396));
#395=SURFACE_STYLE_USAGE(.BOTH.,#397);
#396=SURFACE_STYLE_USAGE(.BOTH.,#398);
#397=SURFACE_SIDE_STYLE('',(#399));
#398=SURFACE_SIDE_STYLE('',(#400,#391));
#399=SURFACE_STYLE_FILL_AREA(#401);
#400=SURFACE_STYLE_FILL_AREA(#402);
#401=FILL_AREA_STYLE('',(#403));
#402=FILL_AREA_STYLE('',(#404));
#403=FILL_AREA_STYLE_COLOUR('',#405);
#404=FILL_AREA_STYLE_COLOUR('',#406);
#405=COLOUR_RGB('',0.749019607843137,0.749019607843137,0.752941176470588);
#406=COLOUR_RGB('',0.63921568627451,0.63921568627451,0.686274509803922);
ENDSEC;
END-ISO-10303-21;
