ISO-10303-21;
HEADER;
/* Generated by software containing ST-Developer
 * from STEP Tools, Inc. (www.steptools.com) 
 */

FILE_DESCRIPTION(
/* description */ ('Senkkopfschraube ISO 10642 - M6 x 70'),
/* implementation_level */ '2;1');

FILE_NAME(
/* name */ '\\\\fileserver\\Daten2\\STEP Daten fuer PIM\\212134-0.step',

/* time_stamp */ '2021-08-27T13:57:08+02:00',
/* author */ ('Trenz'),
/* organization */ (''),
/* preprocessor_version */ 'ST-DEVELOPER v18.1',
/* originating_system */ 'Autodesk Inventor 2021',
/* authorisation */ '');

FILE_SCHEMA (('AUTOMOTIVE_DESIGN { 1 0 10303 214 3 1 1 }'));
ENDSEC;

DATA;
#10=MECHANICAL_DESIGN_GEOMETRIC_PRESENTATION_REPRESENTATION('',(#189,#190,
#191,#192,#193,#194,#195,#196,#197,#198,#199,#200,#201),#362);
#11=SHAPE_REPRESENTATION_RELATIONSHIP('SRR','None',#369,#12);
#12=ADVANCED_BREP_SHAPE_REPRESENTATION('',(#13),#361);
#13=MANIFOLD_SOLID_BREP('Innensechskantschraube ISO 10642',#214);
#14=FACE_BOUND('',#46,.T.);
#15=CYLINDRICAL_SURFACE('',#245,2.99999999999999);
#16=CONICAL_SURFACE('',#243,2.84999999999999,0.785398163397445);
#17=CONICAL_SURFACE('',#247,4.85999999999999,0.785398163397449);
#18=CIRCLE('',#242,2.69999999999999);
#19=CIRCLE('',#244,2.99999999999999);
#20=CIRCLE('',#246,3.);
#21=CIRCLE('',#248,6.71999999999999);
#22=FACE_OUTER_BOUND('',#34,.T.);
#23=FACE_OUTER_BOUND('',#35,.T.);
#24=FACE_OUTER_BOUND('',#36,.T.);
#25=FACE_OUTER_BOUND('',#37,.T.);
#26=FACE_OUTER_BOUND('',#38,.T.);
#27=FACE_OUTER_BOUND('',#39,.T.);
#28=FACE_OUTER_BOUND('',#40,.T.);
#29=FACE_OUTER_BOUND('',#41,.T.);
#30=FACE_OUTER_BOUND('',#42,.T.);
#31=FACE_OUTER_BOUND('',#43,.T.);
#32=FACE_OUTER_BOUND('',#44,.T.);
#33=FACE_OUTER_BOUND('',#45,.T.);
#34=EDGE_LOOP('',(#130,#131,#132,#133));
#35=EDGE_LOOP('',(#134,#135,#136,#137));
#36=EDGE_LOOP('',(#138,#139,#140,#141));
#37=EDGE_LOOP('',(#142,#143,#144,#145));
#38=EDGE_LOOP('',(#146,#147,#148,#149));
#39=EDGE_LOOP('',(#150,#151,#152,#153));
#40=EDGE_LOOP('',(#154,#155,#156,#157,#158,#159));
#41=EDGE_LOOP('',(#160));
#42=EDGE_LOOP('',(#161,#162,#163,#164));
#43=EDGE_LOOP('',(#165,#166,#167,#168));
#44=EDGE_LOOP('',(#169,#170,#171,#172));
#45=EDGE_LOOP('',(#173));
#46=EDGE_LOOP('',(#174,#175,#176,#177,#178,#179));
#47=LINE('',#309,#68);
#48=LINE('',#311,#69);
#49=LINE('',#313,#70);
#50=LINE('',#314,#71);
#51=LINE('',#317,#72);
#52=LINE('',#319,#73);
#53=LINE('',#320,#74);
#54=LINE('',#323,#75);
#55=LINE('',#325,#76);
#56=LINE('',#326,#77);
#57=LINE('',#329,#78);
#58=LINE('',#331,#79);
#59=LINE('',#332,#80);
#60=LINE('',#335,#81);
#61=LINE('',#337,#82);
#62=LINE('',#338,#83);
#63=LINE('',#340,#84);
#64=LINE('',#341,#85);
#65=LINE('',#349,#86);
#66=LINE('',#353,#87);
#67=LINE('',#357,#88);
#68=VECTOR('',#254,2.3094010767585);
#69=VECTOR('',#255,2.2);
#70=VECTOR('',#256,2.3094010767585);
#71=VECTOR('',#257,2.2);
#72=VECTOR('',#260,2.3094010767585);
#73=VECTOR('',#261,2.3094010767585);
#74=VECTOR('',#262,2.2);
#75=VECTOR('',#265,2.3094010767585);
#76=VECTOR('',#266,2.3094010767585);
#77=VECTOR('',#267,2.2);
#78=VECTOR('',#270,2.3094010767585);
#79=VECTOR('',#271,2.3094010767585);
#80=VECTOR('',#272,2.2);
#81=VECTOR('',#275,2.3094010767585);
#82=VECTOR('',#276,2.3094010767585);
#83=VECTOR('',#277,2.2);
#84=VECTOR('',#280,2.3094010767585);
#85=VECTOR('',#281,2.3094010767585);
#86=VECTOR('',#292,2.84999999999999);
#87=VECTOR('',#297,2.99999999999999);
#88=VECTOR('',#302,4.85999999999999);
#89=VERTEX_POINT('',#307);
#90=VERTEX_POINT('',#308);
#91=VERTEX_POINT('',#310);
#92=VERTEX_POINT('',#312);
#93=VERTEX_POINT('',#316);
#94=VERTEX_POINT('',#318);
#95=VERTEX_POINT('',#322);
#96=VERTEX_POINT('',#324);
#97=VERTEX_POINT('',#328);
#98=VERTEX_POINT('',#330);
#99=VERTEX_POINT('',#334);
#100=VERTEX_POINT('',#336);
#101=VERTEX_POINT('',#344);
#102=VERTEX_POINT('',#347);
#103=VERTEX_POINT('',#351);
#104=VERTEX_POINT('',#355);
#105=EDGE_CURVE('',#89,#90,#47,.T.);
#106=EDGE_CURVE('',#91,#89,#48,.T.);
#107=EDGE_CURVE('',#92,#91,#49,.T.);
#108=EDGE_CURVE('',#92,#90,#50,.T.);
#109=EDGE_CURVE('',#90,#93,#51,.T.);
#110=EDGE_CURVE('',#94,#92,#52,.T.);
#111=EDGE_CURVE('',#94,#93,#53,.T.);
#112=EDGE_CURVE('',#93,#95,#54,.T.);
#113=EDGE_CURVE('',#96,#94,#55,.T.);
#114=EDGE_CURVE('',#96,#95,#56,.T.);
#115=EDGE_CURVE('',#95,#97,#57,.T.);
#116=EDGE_CURVE('',#98,#96,#58,.T.);
#117=EDGE_CURVE('',#98,#97,#59,.T.);
#118=EDGE_CURVE('',#97,#99,#60,.T.);
#119=EDGE_CURVE('',#100,#98,#61,.T.);
#120=EDGE_CURVE('',#100,#99,#62,.T.);
#121=EDGE_CURVE('',#99,#89,#63,.T.);
#122=EDGE_CURVE('',#91,#100,#64,.T.);
#123=EDGE_CURVE('',#101,#101,#18,.T.);
#124=EDGE_CURVE('',#102,#102,#19,.T.);
#125=EDGE_CURVE('',#102,#101,#65,.T.);
#126=EDGE_CURVE('',#103,#103,#20,.T.);
#127=EDGE_CURVE('',#103,#102,#66,.T.);
#128=EDGE_CURVE('',#104,#104,#21,.T.);
#129=EDGE_CURVE('',#104,#103,#67,.T.);
#130=ORIENTED_EDGE('',*,*,#105,.F.);
#131=ORIENTED_EDGE('',*,*,#106,.F.);
#132=ORIENTED_EDGE('',*,*,#107,.F.);
#133=ORIENTED_EDGE('',*,*,#108,.T.);
#134=ORIENTED_EDGE('',*,*,#109,.F.);
#135=ORIENTED_EDGE('',*,*,#108,.F.);
#136=ORIENTED_EDGE('',*,*,#110,.F.);
#137=ORIENTED_EDGE('',*,*,#111,.T.);
#138=ORIENTED_EDGE('',*,*,#112,.F.);
#139=ORIENTED_EDGE('',*,*,#111,.F.);
#140=ORIENTED_EDGE('',*,*,#113,.F.);
#141=ORIENTED_EDGE('',*,*,#114,.T.);
#142=ORIENTED_EDGE('',*,*,#115,.F.);
#143=ORIENTED_EDGE('',*,*,#114,.F.);
#144=ORIENTED_EDGE('',*,*,#116,.F.);
#145=ORIENTED_EDGE('',*,*,#117,.T.);
#146=ORIENTED_EDGE('',*,*,#118,.F.);
#147=ORIENTED_EDGE('',*,*,#117,.F.);
#148=ORIENTED_EDGE('',*,*,#119,.F.);
#149=ORIENTED_EDGE('',*,*,#120,.T.);
#150=ORIENTED_EDGE('',*,*,#121,.F.);
#151=ORIENTED_EDGE('',*,*,#120,.F.);
#152=ORIENTED_EDGE('',*,*,#122,.F.);
#153=ORIENTED_EDGE('',*,*,#106,.T.);
#154=ORIENTED_EDGE('',*,*,#105,.T.);
#155=ORIENTED_EDGE('',*,*,#109,.T.);
#156=ORIENTED_EDGE('',*,*,#112,.T.);
#157=ORIENTED_EDGE('',*,*,#115,.T.);
#158=ORIENTED_EDGE('',*,*,#118,.T.);
#159=ORIENTED_EDGE('',*,*,#121,.T.);
#160=ORIENTED_EDGE('',*,*,#123,.F.);
#161=ORIENTED_EDGE('',*,*,#124,.F.);
#162=ORIENTED_EDGE('',*,*,#125,.T.);
#163=ORIENTED_EDGE('',*,*,#123,.T.);
#164=ORIENTED_EDGE('',*,*,#125,.F.);
#165=ORIENTED_EDGE('',*,*,#126,.F.);
#166=ORIENTED_EDGE('',*,*,#127,.T.);
#167=ORIENTED_EDGE('',*,*,#124,.T.);
#168=ORIENTED_EDGE('',*,*,#127,.F.);
#169=ORIENTED_EDGE('',*,*,#128,.F.);
#170=ORIENTED_EDGE('',*,*,#129,.T.);
#171=ORIENTED_EDGE('',*,*,#126,.T.);
#172=ORIENTED_EDGE('',*,*,#129,.F.);
#173=ORIENTED_EDGE('',*,*,#128,.T.);
#174=ORIENTED_EDGE('',*,*,#107,.T.);
#175=ORIENTED_EDGE('',*,*,#122,.T.);
#176=ORIENTED_EDGE('',*,*,#119,.T.);
#177=ORIENTED_EDGE('',*,*,#116,.T.);
#178=ORIENTED_EDGE('',*,*,#113,.T.);
#179=ORIENTED_EDGE('',*,*,#110,.T.);
#180=PLANE('',#234);
#181=PLANE('',#235);
#182=PLANE('',#236);
#183=PLANE('',#237);
#184=PLANE('',#238);
#185=PLANE('',#239);
#186=PLANE('',#240);
#187=PLANE('',#241);
#188=PLANE('',#249);
#189=STYLED_ITEM('',(#378),#202);
#190=STYLED_ITEM('',(#378),#203);
#191=STYLED_ITEM('',(#378),#204);
#192=STYLED_ITEM('',(#378),#205);
#193=STYLED_ITEM('',(#378),#206);
#194=STYLED_ITEM('',(#378),#207);
#195=STYLED_ITEM('',(#378),#208);
#196=STYLED_ITEM('',(#378),#209);
#197=STYLED_ITEM('',(#378),#210);
#198=STYLED_ITEM('',(#378),#211);
#199=STYLED_ITEM('',(#378),#212);
#200=STYLED_ITEM('',(#378),#213);
#201=STYLED_ITEM('',(#379),#13);
#202=ADVANCED_FACE('',(#22),#180,.F.);
#203=ADVANCED_FACE('',(#23),#181,.F.);
#204=ADVANCED_FACE('',(#24),#182,.F.);
#205=ADVANCED_FACE('',(#25),#183,.F.);
#206=ADVANCED_FACE('',(#26),#184,.F.);
#207=ADVANCED_FACE('',(#27),#185,.F.);
#208=ADVANCED_FACE('',(#28),#186,.T.);
#209=ADVANCED_FACE('',(#29),#187,.T.);
#210=ADVANCED_FACE('',(#30),#16,.T.);
#211=ADVANCED_FACE('',(#31),#15,.T.);
#212=ADVANCED_FACE('',(#32),#17,.T.);
#213=ADVANCED_FACE('',(#33,#14),#188,.T.);
#214=CLOSED_SHELL('',(#202,#203,#204,#205,#206,#207,#208,#209,#210,#211,
#212,#213));
#215=DERIVED_UNIT_ELEMENT(#217,1.);
#216=DERIVED_UNIT_ELEMENT(#364,-3.);
#217=(
MASS_UNIT()
NAMED_UNIT(*)
SI_UNIT($,.GRAM.)
);
#218=DERIVED_UNIT((#215,#216));
#219=MEASURE_REPRESENTATION_ITEM('density measure',
POSITIVE_RATIO_MEASURE(7.85),#218);
#220=PROPERTY_DEFINITION_REPRESENTATION(#225,#222);
#221=PROPERTY_DEFINITION_REPRESENTATION(#226,#223);
#222=REPRESENTATION('material name',(#224),#361);
#223=REPRESENTATION('density',(#219),#361);
#224=DESCRIPTIVE_REPRESENTATION_ITEM('Stahl 8.8.','Stahl 8.8.');
#225=PROPERTY_DEFINITION('material property','material name',#371);
#226=PROPERTY_DEFINITION('material property','density of part',#371);
#227=DATE_TIME_ROLE('creation_date');
#228=APPLIED_DATE_AND_TIME_ASSIGNMENT(#229,#227,(#371));
#229=DATE_AND_TIME(#230,#231);
#230=CALENDAR_DATE(2012,30,3);
#231=LOCAL_TIME(0,0,0.,#232);
#232=COORDINATED_UNIVERSAL_TIME_OFFSET(0,0,.BEHIND.);
#233=AXIS2_PLACEMENT_3D('placement',#305,#250,#251);
#234=AXIS2_PLACEMENT_3D('',#306,#252,#253);
#235=AXIS2_PLACEMENT_3D('',#315,#258,#259);
#236=AXIS2_PLACEMENT_3D('',#321,#263,#264);
#237=AXIS2_PLACEMENT_3D('',#327,#268,#269);
#238=AXIS2_PLACEMENT_3D('',#333,#273,#274);
#239=AXIS2_PLACEMENT_3D('',#339,#278,#279);
#240=AXIS2_PLACEMENT_3D('',#342,#282,#283);
#241=AXIS2_PLACEMENT_3D('',#343,#284,#285);
#242=AXIS2_PLACEMENT_3D('',#345,#286,#287);
#243=AXIS2_PLACEMENT_3D('',#346,#288,#289);
#244=AXIS2_PLACEMENT_3D('',#348,#290,#291);
#245=AXIS2_PLACEMENT_3D('',#350,#293,#294);
#246=AXIS2_PLACEMENT_3D('',#352,#295,#296);
#247=AXIS2_PLACEMENT_3D('',#354,#298,#299);
#248=AXIS2_PLACEMENT_3D('',#356,#300,#301);
#249=AXIS2_PLACEMENT_3D('',#358,#303,#304);
#250=DIRECTION('axis',(0.,0.,1.));
#251=DIRECTION('refdir',(1.,0.,0.));
#252=DIRECTION('center_axis',(-0.500000000000001,2.185185E-16,-0.866025403784438));
#253=DIRECTION('ref_axis',(-0.866025403784438,0.,0.500000000000001));
#254=DIRECTION('',(-0.866025403784438,-2.40370335797945E-16,0.5));
#255=DIRECTION('',(0.,-1.,0.));
#256=DIRECTION('',(0.866025403784438,1.108879E-16,-0.5));
#257=DIRECTION('',(0.,-1.,0.));
#258=DIRECTION('center_axis',(-1.,0.,0.));
#259=DIRECTION('ref_axis',(0.,0.,1.));
#260=DIRECTION('',(0.,0.,1.));
#261=DIRECTION('',(0.,0.,-1.));
#262=DIRECTION('',(0.,-1.,0.));
#263=DIRECTION('center_axis',(-0.5,-2.185185E-16,0.866025403784439));
#264=DIRECTION('ref_axis',(0.866025403784439,0.,0.5));
#265=DIRECTION('',(0.866025403784439,-1.20185167898973E-16,0.5));
#266=DIRECTION('',(-0.866025403784439,1.108879E-16,-0.5));
#267=DIRECTION('',(0.,-1.,0.));
#268=DIRECTION('center_axis',(0.5,-2.185185E-16,0.866025403784439));
#269=DIRECTION('ref_axis',(0.866025403784439,0.,-0.5));
#270=DIRECTION('',(0.866025403784439,2.40370335797946E-16,-0.5));
#271=DIRECTION('',(-0.866025403784438,-1.108879E-16,0.5));
#272=DIRECTION('',(0.,-1.,0.));
#273=DIRECTION('center_axis',(1.,0.,0.));
#274=DIRECTION('ref_axis',(0.,0.,-1.));
#275=DIRECTION('',(0.,0.,-1.));
#276=DIRECTION('',(0.,0.,1.));
#277=DIRECTION('',(0.,-1.,0.));
#278=DIRECTION('center_axis',(0.5,2.185185E-16,-0.866025403784439));
#279=DIRECTION('ref_axis',(-0.866025403784439,0.,-0.5));
#280=DIRECTION('',(-0.866025403784439,2.40370335797946E-16,-0.5));
#281=DIRECTION('',(0.866025403784439,-1.108879E-16,0.5));
#282=DIRECTION('center_axis',(0.,1.,0.));
#283=DIRECTION('ref_axis',(0.,0.,1.));
#284=DIRECTION('center_axis',(0.,-1.,0.));
#285=DIRECTION('ref_axis',(0.,0.,-1.));
#286=DIRECTION('center_axis',(0.,1.,0.));
#287=DIRECTION('ref_axis',(0.,0.,1.));
#288=DIRECTION('center_axis',(0.,1.,0.));
#289=DIRECTION('ref_axis',(0.,0.,1.));
#290=DIRECTION('center_axis',(0.,1.,0.));
#291=DIRECTION('ref_axis',(0.,0.,1.));
#292=DIRECTION('',(8.65956056235491E-17,-0.70710678118655,0.707106781186546));
#293=DIRECTION('center_axis',(0.,1.,0.));
#294=DIRECTION('ref_axis',(0.,0.,1.));
#295=DIRECTION('center_axis',(0.,1.,0.));
#296=DIRECTION('ref_axis',(0.,0.,1.));
#297=DIRECTION('',(0.,-1.,0.));
#298=DIRECTION('center_axis',(0.,1.,0.));
#299=DIRECTION('ref_axis',(0.,0.,1.));
#300=DIRECTION('center_axis',(0.,1.,0.));
#301=DIRECTION('ref_axis',(0.,0.,1.));
#302=DIRECTION('',(8.65956056235494E-17,-0.707106781186547,0.707106781186548));
#303=DIRECTION('center_axis',(0.,1.,0.));
#304=DIRECTION('ref_axis',(0.,0.,1.));
#305=CARTESIAN_POINT('',(0.,0.,0.));
#306=CARTESIAN_POINT('Origin',(-7.260929E-16,5.634466E-16,-2.3094010767585));
#307=CARTESIAN_POINT('',(-7.260929E-16,-2.2,-2.3094010767585));
#308=CARTESIAN_POINT('',(-2.,-2.2,-1.15470053837925));
#309=CARTESIAN_POINT('',(-7.260929E-16,-2.2,-2.3094010767585));
#310=CARTESIAN_POINT('',(-7.260929E-16,5.634466E-16,-2.3094010767585));
#311=CARTESIAN_POINT('',(-7.260929E-16,5.634466E-16,-2.3094010767585));
#312=CARTESIAN_POINT('',(-2.,3.073619E-16,-1.15470053837925));
#313=CARTESIAN_POINT('',(-2.,3.073619E-16,-1.15470053837925));
#314=CARTESIAN_POINT('',(-2.,3.073619E-16,-1.15470053837925));
#315=CARTESIAN_POINT('Origin',(-2.,3.073619E-16,-1.15470053837925));
#316=CARTESIAN_POINT('',(-2.,-2.2,1.15470053837925));
#317=CARTESIAN_POINT('',(-2.,-2.2,-1.15470053837925));
#318=CARTESIAN_POINT('',(-2.,-2.048073E-16,1.15470053837925));
#319=CARTESIAN_POINT('',(-2.,-2.048073E-16,1.15470053837925));
#320=CARTESIAN_POINT('',(-2.,-2.048073E-16,1.15470053837925));
#321=CARTESIAN_POINT('Origin',(-2.,-2.048073E-16,1.15470053837925));
#322=CARTESIAN_POINT('',(7.187989E-17,-2.2,2.3094010767585));
#323=CARTESIAN_POINT('',(-2.,-2.2,1.15470053837925));
#324=CARTESIAN_POINT('',(7.187989E-17,-4.60892E-16,2.3094010767585));
#325=CARTESIAN_POINT('',(7.187989E-17,-4.60892E-16,2.3094010767585));
#326=CARTESIAN_POINT('',(7.187989E-17,-4.60892E-16,2.3094010767585));
#327=CARTESIAN_POINT('Origin',(7.187989E-17,-4.60892E-16,2.3094010767585));
#328=CARTESIAN_POINT('',(2.,-2.2,1.15470053837925));
#329=CARTESIAN_POINT('',(7.187989E-17,-2.2,2.3094010767585));
#330=CARTESIAN_POINT('',(2.,-2.048073E-16,1.15470053837925));
#331=CARTESIAN_POINT('',(2.,-2.048073E-16,1.15470053837925));
#332=CARTESIAN_POINT('',(2.,-2.048073E-16,1.15470053837925));
#333=CARTESIAN_POINT('Origin',(2.,-2.048073E-16,1.15470053837925));
#334=CARTESIAN_POINT('',(2.,-2.2,-1.15470053837925));
#335=CARTESIAN_POINT('',(2.,-2.2,1.15470053837925));
#336=CARTESIAN_POINT('',(2.,3.073619E-16,-1.15470053837925));
#337=CARTESIAN_POINT('',(2.,3.073619E-16,-1.15470053837925));
#338=CARTESIAN_POINT('',(2.,3.073619E-16,-1.15470053837925));
#339=CARTESIAN_POINT('Origin',(2.,3.073619E-16,-1.15470053837925));
#340=CARTESIAN_POINT('',(2.,-2.2,-1.15470053837925));
#341=CARTESIAN_POINT('',(-7.260929E-16,5.634466E-16,-2.3094010767585));
#342=CARTESIAN_POINT('Origin',(-4.163336E-16,-2.2,-2.775558E-16));
#343=CARTESIAN_POINT('Origin',(0.,-70.,1.34999999999998));
#344=CARTESIAN_POINT('',(-3.30654635769784E-16,-70.,-2.7));
#345=CARTESIAN_POINT('Origin',(0.,-70.,-1.552431E-14));
#346=CARTESIAN_POINT('Origin',(0.,-69.85,-1.549104E-14));
#347=CARTESIAN_POINT('',(-3.67394039744204E-16,-69.7,-3.));
#348=CARTESIAN_POINT('Origin',(0.,-69.7,-1.545777E-14));
#349=CARTESIAN_POINT('',(-3.49024337756994E-16,-69.85,-2.85));
#350=CARTESIAN_POINT('Origin',(0.,-36.71,-8.14139E-15));
#351=CARTESIAN_POINT('',(-3.67394039744205E-16,-3.72,-3.));
#352=CARTESIAN_POINT('Origin',(0.,-3.72,-8.25006E-16));
#353=CARTESIAN_POINT('',(-3.67394039744205E-16,-36.71,-3.));
#354=CARTESIAN_POINT('Origin',(0.,-1.86,-4.12503E-16));
#355=CARTESIAN_POINT('',(-8.22962649027021E-16,-2.22044604925031E-15,-6.71999999999999));
#356=CARTESIAN_POINT('Origin',(0.,1.025546E-16,2.274413E-32));
#357=CARTESIAN_POINT('',(-5.95178344385613E-16,-1.86,-4.85999999999999));
#358=CARTESIAN_POINT('Origin',(0.,-6.938894E-16,3.35999999999999));
#359=UNCERTAINTY_MEASURE_WITH_UNIT(LENGTH_MEASURE(0.01),#363,
'DISTANCE_ACCURACY_VALUE',
'Maximum model space distance between geometric entities at asserted c
onnectivities');
#360=UNCERTAINTY_MEASURE_WITH_UNIT(LENGTH_MEASURE(0.01),#363,
'DISTANCE_ACCURACY_VALUE',
'Maximum model space distance between geometric entities at asserted c
onnectivities');
#361=(
GEOMETRIC_REPRESENTATION_CONTEXT(3)
GLOBAL_UNCERTAINTY_ASSIGNED_CONTEXT((#359))
GLOBAL_UNIT_ASSIGNED_CONTEXT((#363,#365,#366))
REPRESENTATION_CONTEXT('','3D')
);
#362=(
GEOMETRIC_REPRESENTATION_CONTEXT(3)
GLOBAL_UNCERTAINTY_ASSIGNED_CONTEXT((#360))
GLOBAL_UNIT_ASSIGNED_CONTEXT((#363,#365,#366))
REPRESENTATION_CONTEXT('','3D')
);
#363=(
LENGTH_UNIT()
NAMED_UNIT(*)
SI_UNIT(.MILLI.,.METRE.)
);
#364=(
LENGTH_UNIT()
NAMED_UNIT(*)
SI_UNIT(.CENTI.,.METRE.)
);
#365=(
NAMED_UNIT(*)
PLANE_ANGLE_UNIT()
SI_UNIT($,.RADIAN.)
);
#366=(
NAMED_UNIT(*)
SI_UNIT($,.STERADIAN.)
SOLID_ANGLE_UNIT()
);
#367=SHAPE_DEFINITION_REPRESENTATION(#368,#369);
#368=PRODUCT_DEFINITION_SHAPE('',$,#371);
#369=SHAPE_REPRESENTATION('',(#233),#361);
#370=PRODUCT_DEFINITION_CONTEXT('part definition',#375,'design');
#371=PRODUCT_DEFINITION('leer','00079158',#372,#370);
#372=PRODUCT_DEFINITION_FORMATION('',$,#377);
#373=PRODUCT_RELATED_PRODUCT_CATEGORY('00079158','00079158',(#377));
#374=APPLICATION_PROTOCOL_DEFINITION('international standard',
'automotive_design',2009,#375);
#375=APPLICATION_CONTEXT(
'Core Data for Automotive Mechanical Design Process');
#376=PRODUCT_CONTEXT('part definition',#375,'mechanical');
#377=PRODUCT('leer','00079158','Senkkopfschraube ISO 10642 - M6 x 70',(#376));
#378=PRESENTATION_STYLE_ASSIGNMENT((#380));
#379=PRESENTATION_STYLE_ASSIGNMENT((#381));
#380=SURFACE_STYLE_USAGE(.BOTH.,#386);
#381=SURFACE_STYLE_USAGE(.BOTH.,#387);
#382=SURFACE_STYLE_RENDERING_WITH_PROPERTIES($,#394,(#384));
#383=SURFACE_STYLE_RENDERING_WITH_PROPERTIES($,#395,(#385));
#384=SURFACE_STYLE_TRANSPARENT(0.);
#385=SURFACE_STYLE_TRANSPARENT(0.);
#386=SURFACE_SIDE_STYLE('',(#388,#382));
#387=SURFACE_SIDE_STYLE('',(#389,#383));
#388=SURFACE_STYLE_FILL_AREA(#390);
#389=SURFACE_STYLE_FILL_AREA(#391);
#390=FILL_AREA_STYLE('',(#392));
#391=FILL_AREA_STYLE('',(#393));
#392=FILL_AREA_STYLE_COLOUR('',#394);
#393=FILL_AREA_STYLE_COLOUR('',#395);
#394=COLOUR_RGB('',0.83921568627451,0.886274509803922,0.854901960784314);
#395=COLOUR_RGB('',0.63921568627451,0.63921568627451,0.686274509803922);
ENDSEC;
END-ISO-10303-21;
