ISO-10303-21;
HEADER;
/* Generated by software containing ST-Developer
 * from STEP Tools, Inc. (www.steptools.com) 
 */

FILE_DESCRIPTION(
/* description */ ('Flachkopfschraube mit Schlitz DIN 921 - M6 x 12'),
/* implementation_level */ '2;1');

FILE_NAME(
/* name */ 
'\\\\crossprint\\CrossbaseMedia\\daten_aus_vault\\ZEI_CAD_212074-0-REV
00_#SALL_#AIN_#V1.step',
/* time_stamp */ '2022-09-15T21:14:33+02:00',
/* author */ ('MiniTec'),
/* organization */ ('MiniTec GmbH & Co.KG'),
/* preprocessor_version */ 'ST-DEVELOPER v18.1',
/* originating_system */ 'Autodesk Inventor 2021',
/* authorisation */ '');

FILE_SCHEMA (('CONFIG_CONTROL_DESIGN'));
ENDSEC;

DATA;
#10=MECHANICAL_DESIGN_GEOMETRIC_PRESENTATION_REPRESENTATION('',(#13),#376);
#11=SHAPE_REPRESENTATION_RELATIONSHIP('SRR','None',#383,#12);
#12=ADVANCED_BREP_SHAPE_REPRESENTATION('',(#14),#375);
#13=STYLED_ITEM('',(#392),#14);
#14=MANIFOLD_SOLID_BREP('Solid1',#202);
#15=FACE_BOUND('',#53,.T.);
#16=(
BOUNDED_CURVE()
B_SPLINE_CURVE(2,(#324,#325,#326),.UNSPECIFIED.,.F.,.F.)
B_SPLINE_CURVE_WITH_KNOTS((3,3),(0.,0.119554683489806),.UNSPECIFIED.)
CURVE()
GEOMETRIC_REPRESENTATION_ITEM()
RATIONAL_B_SPLINE_CURVE((1.,1.00197111956016,1.00219095239494))
REPRESENTATION_ITEM('')
);
#17=(
BOUNDED_CURVE()
B_SPLINE_CURVE(2,(#330,#331,#332),.UNSPECIFIED.,.F.,.F.)
B_SPLINE_CURVE_WITH_KNOTS((3,3),(0.149569237475539,0.26912392096534),
 .UNSPECIFIED.)
CURVE()
GEOMETRIC_REPRESENTATION_ITEM()
RATIONAL_B_SPLINE_CURVE((1.00219095239779,1.00197111956273,1.))
REPRESENTATION_ITEM('')
);
#18=(
BOUNDED_CURVE()
B_SPLINE_CURVE(2,(#358,#359,#360),.UNSPECIFIED.,.F.,.F.)
B_SPLINE_CURVE_WITH_KNOTS((3,3),(0.,0.119554683489806),.UNSPECIFIED.)
CURVE()
GEOMETRIC_REPRESENTATION_ITEM()
RATIONAL_B_SPLINE_CURVE((1.,1.00197111956016,1.00219095239494))
REPRESENTATION_ITEM('')
);
#19=(
BOUNDED_CURVE()
B_SPLINE_CURVE(2,(#362,#363,#364),.UNSPECIFIED.,.F.,.F.)
B_SPLINE_CURVE_WITH_KNOTS((3,3),(0.149569237475539,0.26912392096534),
 .UNSPECIFIED.)
CURVE()
GEOMETRIC_REPRESENTATION_ITEM()
RATIONAL_B_SPLINE_CURVE((1.00219095239779,1.00197111956273,1.))
REPRESENTATION_ITEM('')
);
#20=PLANE('',#228);
#21=PLANE('',#232);
#22=PLANE('',#241);
#23=PLANE('',#242);
#24=PLANE('',#243);
#25=PLANE('',#244);
#26=PLANE('',#245);
#27=CYLINDRICAL_SURFACE('',#226,3.);
#28=CYLINDRICAL_SURFACE('',#233,10.);
#29=FACE_OUTER_BOUND('',#41,.T.);
#30=FACE_OUTER_BOUND('',#42,.T.);
#31=FACE_OUTER_BOUND('',#43,.T.);
#32=FACE_OUTER_BOUND('',#44,.T.);
#33=FACE_OUTER_BOUND('',#45,.T.);
#34=FACE_OUTER_BOUND('',#46,.T.);
#35=FACE_OUTER_BOUND('',#47,.T.);
#36=FACE_OUTER_BOUND('',#48,.T.);
#37=FACE_OUTER_BOUND('',#49,.T.);
#38=FACE_OUTER_BOUND('',#50,.T.);
#39=FACE_OUTER_BOUND('',#51,.T.);
#40=FACE_OUTER_BOUND('',#52,.T.);
#41=EDGE_LOOP('',(#133,#134,#135,#136,#137));
#42=EDGE_LOOP('',(#138,#139,#140,#141,#142));
#43=EDGE_LOOP('',(#143));
#44=EDGE_LOOP('',(#144,#145,#146,#147));
#45=EDGE_LOOP('',(#148,#149,#150,#151,#152,#153));
#46=EDGE_LOOP('',(#154,#155,#156,#157,#158,#159,#160,#161,#162,#163,#164,
#165));
#47=EDGE_LOOP('',(#166,#167,#168,#169,#170));
#48=EDGE_LOOP('',(#171,#172,#173,#174,#175,#176));
#49=EDGE_LOOP('',(#177,#178,#179,#180));
#50=EDGE_LOOP('',(#181,#182));
#51=EDGE_LOOP('',(#183,#184));
#52=EDGE_LOOP('',(#185));
#53=EDGE_LOOP('',(#186));
#54=LINE('',#312,#65);
#55=LINE('',#318,#66);
#56=LINE('',#336,#67);
#57=LINE('',#338,#68);
#58=LINE('',#339,#69);
#59=LINE('',#340,#70);
#60=LINE('',#345,#71);
#61=LINE('',#349,#72);
#62=LINE('',#354,#73);
#63=LINE('',#367,#74);
#64=LINE('',#368,#75);
#65=VECTOR('',#252,2.693275);
#66=VECTOR('',#259,3.);
#67=VECTOR('',#272,10.);
#68=VECTOR('',#273,10.);
#69=VECTOR('',#274,10.);
#70=VECTOR('',#275,10.);
#71=VECTOR('',#280,10.);
#72=VECTOR('',#283,10.);
#73=VECTOR('',#288,10.);
#74=VECTOR('',#297,10.);
#75=VECTOR('',#298,10.);
#76=CIRCLE('',#223,2.38655);
#77=CIRCLE('',#224,3.);
#78=CIRCLE('',#225,3.);
#79=CIRCLE('',#227,3.);
#80=CIRCLE('',#230,10.);
#81=CIRCLE('',#231,9.2);
#82=CIRCLE('',#234,10.);
#83=CIRCLE('',#235,10.);
#84=CIRCLE('',#236,10.);
#85=CIRCLE('',#237,10.);
#86=CIRCLE('',#238,10.);
#87=CIRCLE('',#240,9.2);
#88=VERTEX_POINT('',#309);
#89=VERTEX_POINT('',#311);
#90=VERTEX_POINT('',#313);
#91=VERTEX_POINT('',#317);
#92=VERTEX_POINT('',#322);
#93=VERTEX_POINT('',#323);
#94=VERTEX_POINT('',#327);
#95=VERTEX_POINT('',#329);
#96=VERTEX_POINT('',#335);
#97=VERTEX_POINT('',#337);
#98=VERTEX_POINT('',#342);
#99=VERTEX_POINT('',#344);
#100=VERTEX_POINT('',#346);
#101=VERTEX_POINT('',#348);
#102=VERTEX_POINT('',#351);
#103=VERTEX_POINT('',#353);
#104=VERTEX_POINT('',#357);
#105=VERTEX_POINT('',#361);
#106=EDGE_CURVE('',#88,#88,#76,.T.);
#107=EDGE_CURVE('',#88,#89,#54,.T.);
#108=EDGE_CURVE('',#89,#90,#77,.T.);
#109=EDGE_CURVE('',#90,#89,#78,.T.);
#110=EDGE_CURVE('',#90,#91,#55,.T.);
#111=EDGE_CURVE('',#91,#91,#79,.T.);
#112=EDGE_CURVE('',#92,#93,#16,.T.);
#113=EDGE_CURVE('',#93,#94,#80,.T.);
#114=EDGE_CURVE('',#94,#95,#17,.T.);
#115=EDGE_CURVE('',#95,#92,#81,.T.);
#116=EDGE_CURVE('',#96,#94,#56,.T.);
#117=EDGE_CURVE('',#97,#96,#57,.T.);
#118=EDGE_CURVE('',#93,#97,#58,.T.);
#119=EDGE_CURVE('',#95,#92,#59,.T.);
#120=EDGE_CURVE('',#98,#98,#82,.T.);
#121=EDGE_CURVE('',#98,#99,#60,.T.);
#122=EDGE_CURVE('',#100,#99,#83,.T.);
#123=EDGE_CURVE('',#100,#101,#61,.T.);
#124=EDGE_CURVE('',#101,#96,#84,.T.);
#125=EDGE_CURVE('',#97,#102,#85,.T.);
#126=EDGE_CURVE('',#102,#103,#62,.T.);
#127=EDGE_CURVE('',#99,#103,#86,.T.);
#128=EDGE_CURVE('',#104,#100,#18,.T.);
#129=EDGE_CURVE('',#103,#105,#19,.T.);
#130=EDGE_CURVE('',#105,#104,#87,.T.);
#131=EDGE_CURVE('',#101,#102,#63,.T.);
#132=EDGE_CURVE('',#105,#104,#64,.T.);
#133=ORIENTED_EDGE('',*,*,#106,.T.);
#134=ORIENTED_EDGE('',*,*,#107,.T.);
#135=ORIENTED_EDGE('',*,*,#108,.T.);
#136=ORIENTED_EDGE('',*,*,#109,.T.);
#137=ORIENTED_EDGE('',*,*,#107,.F.);
#138=ORIENTED_EDGE('',*,*,#108,.F.);
#139=ORIENTED_EDGE('',*,*,#109,.F.);
#140=ORIENTED_EDGE('',*,*,#110,.T.);
#141=ORIENTED_EDGE('',*,*,#111,.T.);
#142=ORIENTED_EDGE('',*,*,#110,.F.);
#143=ORIENTED_EDGE('',*,*,#106,.F.);
#144=ORIENTED_EDGE('',*,*,#112,.T.);
#145=ORIENTED_EDGE('',*,*,#113,.T.);
#146=ORIENTED_EDGE('',*,*,#114,.T.);
#147=ORIENTED_EDGE('',*,*,#115,.T.);
#148=ORIENTED_EDGE('',*,*,#114,.F.);
#149=ORIENTED_EDGE('',*,*,#116,.F.);
#150=ORIENTED_EDGE('',*,*,#117,.F.);
#151=ORIENTED_EDGE('',*,*,#118,.F.);
#152=ORIENTED_EDGE('',*,*,#112,.F.);
#153=ORIENTED_EDGE('',*,*,#119,.F.);
#154=ORIENTED_EDGE('',*,*,#120,.F.);
#155=ORIENTED_EDGE('',*,*,#121,.T.);
#156=ORIENTED_EDGE('',*,*,#122,.F.);
#157=ORIENTED_EDGE('',*,*,#123,.T.);
#158=ORIENTED_EDGE('',*,*,#124,.T.);
#159=ORIENTED_EDGE('',*,*,#116,.T.);
#160=ORIENTED_EDGE('',*,*,#113,.F.);
#161=ORIENTED_EDGE('',*,*,#118,.T.);
#162=ORIENTED_EDGE('',*,*,#125,.T.);
#163=ORIENTED_EDGE('',*,*,#126,.T.);
#164=ORIENTED_EDGE('',*,*,#127,.F.);
#165=ORIENTED_EDGE('',*,*,#121,.F.);
#166=ORIENTED_EDGE('',*,*,#128,.T.);
#167=ORIENTED_EDGE('',*,*,#122,.T.);
#168=ORIENTED_EDGE('',*,*,#127,.T.);
#169=ORIENTED_EDGE('',*,*,#129,.T.);
#170=ORIENTED_EDGE('',*,*,#130,.T.);
#171=ORIENTED_EDGE('',*,*,#129,.F.);
#172=ORIENTED_EDGE('',*,*,#126,.F.);
#173=ORIENTED_EDGE('',*,*,#131,.F.);
#174=ORIENTED_EDGE('',*,*,#123,.F.);
#175=ORIENTED_EDGE('',*,*,#128,.F.);
#176=ORIENTED_EDGE('',*,*,#132,.F.);
#177=ORIENTED_EDGE('',*,*,#125,.F.);
#178=ORIENTED_EDGE('',*,*,#117,.T.);
#179=ORIENTED_EDGE('',*,*,#124,.F.);
#180=ORIENTED_EDGE('',*,*,#131,.T.);
#181=ORIENTED_EDGE('',*,*,#115,.F.);
#182=ORIENTED_EDGE('',*,*,#119,.T.);
#183=ORIENTED_EDGE('',*,*,#130,.F.);
#184=ORIENTED_EDGE('',*,*,#132,.T.);
#185=ORIENTED_EDGE('',*,*,#120,.T.);
#186=ORIENTED_EDGE('',*,*,#111,.F.);
#187=CONICAL_SURFACE('',#222,2.693275,0.785398163397448);
#188=CONICAL_SURFACE('',#229,9.6,0.785398163397448);
#189=CONICAL_SURFACE('',#239,9.6,0.785398163397448);
#190=ADVANCED_FACE('',(#29),#187,.T.);
#191=ADVANCED_FACE('',(#30),#27,.T.);
#192=ADVANCED_FACE('',(#31),#20,.T.);
#193=ADVANCED_FACE('',(#32),#188,.T.);
#194=ADVANCED_FACE('',(#33),#21,.F.);
#195=ADVANCED_FACE('',(#34),#28,.T.);
#196=ADVANCED_FACE('',(#35),#189,.T.);
#197=ADVANCED_FACE('',(#36),#22,.F.);
#198=ADVANCED_FACE('',(#37),#23,.F.);
#199=ADVANCED_FACE('',(#38),#24,.T.);
#200=ADVANCED_FACE('',(#39),#25,.T.);
#201=ADVANCED_FACE('',(#40,#15),#26,.T.);
#202=CLOSED_SHELL('',(#190,#191,#192,#193,#194,#195,#196,#197,#198,#199,
#200,#201));
#203=DERIVED_UNIT_ELEMENT(#205,1.);
#204=DERIVED_UNIT_ELEMENT(#378,-3.);
#205=(
MASS_UNIT()
NAMED_UNIT(*)
SI_UNIT($,.GRAM.)
);
#206=DERIVED_UNIT((#203,#204));
#207=MEASURE_REPRESENTATION_ITEM('density measure',
POSITIVE_RATIO_MEASURE(7.85),#206);
#208=PROPERTY_DEFINITION_REPRESENTATION(#213,#210);
#209=PROPERTY_DEFINITION_REPRESENTATION(#214,#211);
#210=REPRESENTATION('material name',(#212),#375);
#211=REPRESENTATION('density',(#207),#375);
#212=DESCRIPTIVE_REPRESENTATION_ITEM('Stahl 5.8','Stahl 5.8');
#213=PROPERTY_DEFINITION('material property','material name',#385);
#214=PROPERTY_DEFINITION('material property','density of part',#385);
#215=DATE_TIME_ROLE('creation_date');
#216=CC_DESIGN_DATE_AND_TIME_ASSIGNMENT(#217,#215,(#385));
#217=DATE_AND_TIME(#218,#219);
#218=CALENDAR_DATE(2010,27,8);
#219=LOCAL_TIME(0,0,0.,#220);
#220=COORDINATED_UNIVERSAL_TIME_OFFSET(0,0,.BEHIND.);
#221=AXIS2_PLACEMENT_3D('placement',#307,#246,#247);
#222=AXIS2_PLACEMENT_3D('',#308,#248,#249);
#223=AXIS2_PLACEMENT_3D('',#310,#250,#251);
#224=AXIS2_PLACEMENT_3D('',#314,#253,#254);
#225=AXIS2_PLACEMENT_3D('',#315,#255,#256);
#226=AXIS2_PLACEMENT_3D('',#316,#257,#258);
#227=AXIS2_PLACEMENT_3D('',#319,#260,#261);
#228=AXIS2_PLACEMENT_3D('',#320,#262,#263);
#229=AXIS2_PLACEMENT_3D('',#321,#264,#265);
#230=AXIS2_PLACEMENT_3D('',#328,#266,#267);
#231=AXIS2_PLACEMENT_3D('',#333,#268,#269);
#232=AXIS2_PLACEMENT_3D('',#334,#270,#271);
#233=AXIS2_PLACEMENT_3D('',#341,#276,#277);
#234=AXIS2_PLACEMENT_3D('',#343,#278,#279);
#235=AXIS2_PLACEMENT_3D('',#347,#281,#282);
#236=AXIS2_PLACEMENT_3D('',#350,#284,#285);
#237=AXIS2_PLACEMENT_3D('',#352,#286,#287);
#238=AXIS2_PLACEMENT_3D('',#355,#289,#290);
#239=AXIS2_PLACEMENT_3D('',#356,#291,#292);
#240=AXIS2_PLACEMENT_3D('',#365,#293,#294);
#241=AXIS2_PLACEMENT_3D('',#366,#295,#296);
#242=AXIS2_PLACEMENT_3D('',#369,#299,#300);
#243=AXIS2_PLACEMENT_3D('',#370,#301,#302);
#244=AXIS2_PLACEMENT_3D('',#371,#303,#304);
#245=AXIS2_PLACEMENT_3D('',#372,#305,#306);
#246=DIRECTION('axis',(0.,0.,1.));
#247=DIRECTION('refdir',(1.,0.,0.));
#248=DIRECTION('center_axis',(-1.,2.44627380663838E-34,0.));
#249=DIRECTION('ref_axis',(-1.08383933189757E-34,-1.,0.));
#250=DIRECTION('center_axis',(-1.,2.44627380663838E-34,0.));
#251=DIRECTION('ref_axis',(-2.44627380663838E-34,-1.,0.));
#252=DIRECTION('',(-0.707106781186548,0.707106781186547,8.65956056235493E-17));
#253=DIRECTION('center_axis',(1.,-2.44627380663838E-34,0.));
#254=DIRECTION('ref_axis',(0.,-1.,0.));
#255=DIRECTION('center_axis',(1.,-2.44627380663838E-34,0.));
#256=DIRECTION('ref_axis',(0.,-1.,0.));
#257=DIRECTION('center_axis',(1.,-2.44627380663838E-34,0.));
#258=DIRECTION('ref_axis',(0.,1.,0.));
#259=DIRECTION('',(-1.,2.44627380663838E-34,0.));
#260=DIRECTION('center_axis',(1.,-2.44627380663838E-34,0.));
#261=DIRECTION('ref_axis',(0.,1.,0.));
#262=DIRECTION('center_axis',(1.,-2.44627380663838E-34,0.));
#263=DIRECTION('ref_axis',(0.,0.,-1.));
#264=DIRECTION('center_axis',(1.,-2.44627380663838E-34,0.));
#265=DIRECTION('ref_axis',(1.17217286568089E-34,1.,0.));
#266=DIRECTION('center_axis',(-1.,2.44627380663838E-34,0.));
#267=DIRECTION('ref_axis',(0.,1.,0.));
#268=DIRECTION('center_axis',(1.,-2.44627380663838E-34,0.));
#269=DIRECTION('ref_axis',(2.44627380663838E-34,1.,0.));
#270=DIRECTION('center_axis',(0.,1.,-1.2490009027033E-16));
#271=DIRECTION('ref_axis',(0.,1.2490009027033E-16,1.));
#272=DIRECTION('',(-1.,2.44627380663838E-34,0.));
#273=DIRECTION('',(-3.05539819275078E-50,-1.2490009027033E-16,-1.));
#274=DIRECTION('',(1.,-2.44627380663838E-34,0.));
#275=DIRECTION('',(3.05539819275078E-50,1.2490009027033E-16,1.));
#276=DIRECTION('center_axis',(1.,-2.44627380663838E-34,0.));
#277=DIRECTION('ref_axis',(0.,1.,0.));
#278=DIRECTION('center_axis',(1.,-2.44627380663838E-34,0.));
#279=DIRECTION('ref_axis',(0.,1.,0.));
#280=DIRECTION('',(-1.,2.44627380663838E-34,0.));
#281=DIRECTION('center_axis',(-1.,2.44627380663838E-34,0.));
#282=DIRECTION('ref_axis',(0.,-1.,0.));
#283=DIRECTION('',(1.,-2.44627380663838E-34,0.));
#284=DIRECTION('center_axis',(1.,2.79512304662943E-31,-1.84658451596682E-33));
#285=DIRECTION('ref_axis',(0.,1.,0.));
#286=DIRECTION('center_axis',(1.,2.79512304662943E-31,-1.84658451596682E-33));
#287=DIRECTION('ref_axis',(0.,1.,0.));
#288=DIRECTION('',(-1.,2.44627380663838E-34,0.));
#289=DIRECTION('center_axis',(-1.,2.44627380663838E-34,0.));
#290=DIRECTION('ref_axis',(0.,-1.,0.));
#291=DIRECTION('center_axis',(1.,-2.44627380663838E-34,0.));
#292=DIRECTION('ref_axis',(-1.17217286568089E-34,-1.,0.));
#293=DIRECTION('center_axis',(1.,-2.44627380663838E-34,0.));
#294=DIRECTION('ref_axis',(-2.44627380663838E-34,-1.,0.));
#295=DIRECTION('center_axis',(0.,-1.,1.2490009027033E-16));
#296=DIRECTION('ref_axis',(0.,-1.2490009027033E-16,-1.));
#297=DIRECTION('',(3.05539819275078E-50,1.2490009027033E-16,1.));
#298=DIRECTION('',(-3.05539819275078E-50,-1.2490009027033E-16,-1.));
#299=DIRECTION('center_axis',(1.,2.79512304662943E-31,-1.84658451596682E-33));
#300=DIRECTION('ref_axis',(-1.84658451596682E-33,0.,-1.));
#301=DIRECTION('center_axis',(-1.,2.44627380663838E-34,0.));
#302=DIRECTION('ref_axis',(0.,0.,1.));
#303=DIRECTION('center_axis',(-1.,2.44627380663838E-34,0.));
#304=DIRECTION('ref_axis',(0.,0.,1.));
#305=DIRECTION('center_axis',(1.,-2.44627380663838E-34,0.));
#306=DIRECTION('ref_axis',(0.,0.,-1.));
#307=CARTESIAN_POINT('',(0.,0.,0.));
#308=CARTESIAN_POINT('Origin',(11.693275,9.00796610246409E-35,0.));
#309=CARTESIAN_POINT('',(12.,2.38655,-2.92268081850511E-16));
#310=CARTESIAN_POINT('Origin',(12.,1.50463276905251E-35,0.));
#311=CARTESIAN_POINT('',(11.38655,3.,3.67394039744206E-16));
#312=CARTESIAN_POINT('',(11.693275,2.693275,3.29831060797359E-16));
#313=CARTESIAN_POINT('',(11.38655,-3.,-3.67394039744206E-16));
#314=CARTESIAN_POINT('Origin',(11.38655,1.65112994358757E-34,0.));
#315=CARTESIAN_POINT('Origin',(11.38655,1.65112994358757E-34,0.));
#316=CARTESIAN_POINT('Origin',(6.,1.48281061167355E-33,0.));
#317=CARTESIAN_POINT('',(-1.11022302462516E-15,-3.,-3.67394039744206E-16));
#318=CARTESIAN_POINT('',(6.,-3.,-3.67394039744206E-16));
#319=CARTESIAN_POINT('Origin',(0.,2.95057489565658E-33,0.));
#320=CARTESIAN_POINT('Origin',(12.,1.5,0.));
#321=CARTESIAN_POINT('Origin',(-2.7,3.61106882344895E-33,0.));
#322=CARTESIAN_POINT('',(-3.1,0.800000000000001,9.16515138991168));
#323=CARTESIAN_POINT('',(-2.3,0.800000000000001,9.96794863550169));
#324=CARTESIAN_POINT('Ctrl Pts',(-3.1,0.800000000000001,9.16515138991168));
#325=CARTESIAN_POINT('Ctrl Pts',(-2.71678342229203,0.800000000000002,9.54982507012972));
#326=CARTESIAN_POINT('Ctrl Pts',(-2.3,0.800000000000001,9.96794863550169));
#327=CARTESIAN_POINT('',(-2.3,0.799999999999999,-9.96794863550169));
#328=CARTESIAN_POINT('Origin',(-2.3,3.51321787118341E-33,0.));
#329=CARTESIAN_POINT('',(-3.1,0.799999999999999,-9.16515138991168));
#330=CARTESIAN_POINT('Ctrl Pts',(-2.3,0.799999999999999,-9.96794863550169));
#331=CARTESIAN_POINT('Ctrl Pts',(-2.71678342229094,0.799999999999999,-9.54982507013081));
#332=CARTESIAN_POINT('Ctrl Pts',(-3.1,0.799999999999999,-9.16515138991168));
#333=CARTESIAN_POINT('Origin',(-3.1,3.70891977571448E-33,0.));
#334=CARTESIAN_POINT('Origin',(-3.1,0.8,9.6102998802797E-17));
#335=CARTESIAN_POINT('',(-1.2,0.799999999999995,-9.96794863550169));
#336=CARTESIAN_POINT('',(-1.55,0.799999999999999,-9.96794863550169));
#337=CARTESIAN_POINT('',(-1.2,0.799999999999997,9.96794863550169));
#338=CARTESIAN_POINT('',(-1.2,0.799999999999995,-10.));
#339=CARTESIAN_POINT('',(-1.55,0.800000000000001,9.96794863550169));
#340=CARTESIAN_POINT('',(-3.1,0.8,3.10341688969092E-16));
#341=CARTESIAN_POINT('Origin',(-1.55,3.32974733568553E-33,0.));
#342=CARTESIAN_POINT('',(0.,-10.,-1.22464679914735E-15));
#343=CARTESIAN_POINT('Origin',(0.,2.95057489565658E-33,0.));
#344=CARTESIAN_POINT('',(-2.3,-10.,-1.22464679914735E-15));
#345=CARTESIAN_POINT('',(-1.55,-10.,-1.22464679914735E-15));
#346=CARTESIAN_POINT('',(-2.3,-0.800000000000001,-9.96794863550169));
#347=CARTESIAN_POINT('Origin',(-2.3,3.51321787118341E-33,0.));
#348=CARTESIAN_POINT('',(-1.2,-0.8,-9.96794863550169));
#349=CARTESIAN_POINT('',(-1.55,-0.800000000000001,-9.96794863550169));
#350=CARTESIAN_POINT('Origin',(-1.2,3.24412775245319E-33,0.));
#351=CARTESIAN_POINT('',(-1.2,-0.799999999999997,9.96794863550169));
#352=CARTESIAN_POINT('Origin',(-1.2,3.24412775245319E-33,0.));
#353=CARTESIAN_POINT('',(-2.3,-0.799999999999999,9.96794863550169));
#354=CARTESIAN_POINT('',(-1.55,-0.799999999999999,9.96794863550169));
#355=CARTESIAN_POINT('Origin',(-2.3,3.51321787118341E-33,0.));
#356=CARTESIAN_POINT('Origin',(-2.7,3.61106882344895E-33,0.));
#357=CARTESIAN_POINT('',(-3.1,-0.800000000000001,-9.16515138991168));
#358=CARTESIAN_POINT('Ctrl Pts',(-3.1,-0.800000000000001,-9.16515138991168));
#359=CARTESIAN_POINT('Ctrl Pts',(-2.71678342229203,-0.800000000000002,-9.54982507012972));
#360=CARTESIAN_POINT('Ctrl Pts',(-2.3,-0.800000000000001,-9.96794863550169));
#361=CARTESIAN_POINT('',(-3.1,-0.799999999999999,9.16515138991168));
#362=CARTESIAN_POINT('Ctrl Pts',(-2.3,-0.799999999999999,9.96794863550169));
#363=CARTESIAN_POINT('Ctrl Pts',(-2.71678342229094,-0.799999999999999,9.54982507013081));
#364=CARTESIAN_POINT('Ctrl Pts',(-3.1,-0.799999999999999,9.16515138991168));
#365=CARTESIAN_POINT('Origin',(-3.1,3.70891977571448E-33,0.));
#366=CARTESIAN_POINT('Origin',(-3.1,-0.8,9.6102998802797E-17));
#367=CARTESIAN_POINT('',(-1.2,-0.799999999999998,10.));
#368=CARTESIAN_POINT('',(-3.1,-0.8,4.10261761185356E-16));
#369=CARTESIAN_POINT('Origin',(-1.2,-1.23707467880596E-15,-1.73472347597681E-16));
#370=CARTESIAN_POINT('Origin',(-3.1,5.,0.));
#371=CARTESIAN_POINT('Origin',(-3.1,5.,0.));
#372=CARTESIAN_POINT('Origin',(0.,6.5,0.));
#373=UNCERTAINTY_MEASURE_WITH_UNIT(LENGTH_MEASURE(0.01),#377,
'DISTANCE_ACCURACY_VALUE',
'Maximum model space distance between geometric entities at asserted c
onnectivities');
#374=UNCERTAINTY_MEASURE_WITH_UNIT(LENGTH_MEASURE(0.01),#377,
'DISTANCE_ACCURACY_VALUE',
'Maximum model space distance between geometric entities at asserted c
onnectivities');
#375=(
GEOMETRIC_REPRESENTATION_CONTEXT(3)
GLOBAL_UNCERTAINTY_ASSIGNED_CONTEXT((#373))
GLOBAL_UNIT_ASSIGNED_CONTEXT((#377,#379,#380))
REPRESENTATION_CONTEXT('','3D')
);
#376=(
GEOMETRIC_REPRESENTATION_CONTEXT(3)
GLOBAL_UNCERTAINTY_ASSIGNED_CONTEXT((#374))
GLOBAL_UNIT_ASSIGNED_CONTEXT((#377,#379,#380))
REPRESENTATION_CONTEXT('','3D')
);
#377=(
LENGTH_UNIT()
NAMED_UNIT(*)
SI_UNIT(.MILLI.,.METRE.)
);
#378=(
LENGTH_UNIT()
NAMED_UNIT(*)
SI_UNIT(.CENTI.,.METRE.)
);
#379=(
NAMED_UNIT(*)
PLANE_ANGLE_UNIT()
SI_UNIT($,.RADIAN.)
);
#380=(
NAMED_UNIT(*)
SI_UNIT($,.STERADIAN.)
SOLID_ANGLE_UNIT()
);
#381=SHAPE_DEFINITION_REPRESENTATION(#382,#383);
#382=PRODUCT_DEFINITION_SHAPE('',$,#385);
#383=SHAPE_REPRESENTATION('',(#221),#375);
#384=DESIGN_CONTEXT('part definition',#389,'design');
#385=PRODUCT_DEFINITION('leer','00035239',#386,#384);
#386=PRODUCT_DEFINITION_FORMATION('00',$,#391);
#387=PRODUCT_RELATED_PRODUCT_CATEGORY('00035239','00035239',(#391));
#388=APPLICATION_PROTOCOL_DEFINITION('international standard',
'ap203_configuration_controlled_3d_design_of_mechanical_parts_and_asse
mblies_mim_lf',2004,#389);
#389=APPLICATION_CONTEXT(
'Configuration Controlled 3D Design of Mechanical Parts and Assemblies');
#390=MECHANICAL_CONTEXT('part definition',#389,'mechanical');
#391=PRODUCT('leer','00035239',
'Flachkopfschraube mit Schlitz DIN 921 - M6 x 12',(#390));
#392=PRESENTATION_STYLE_ASSIGNMENT((#393));
#393=SURFACE_STYLE_USAGE(.BOTH.,#396);
#394=SURFACE_STYLE_RENDERING_WITH_PROPERTIES($,#400,(#395));
#395=SURFACE_STYLE_TRANSPARENT(0.);
#396=SURFACE_SIDE_STYLE('',(#397,#394));
#397=SURFACE_STYLE_FILL_AREA(#398);
#398=FILL_AREA_STYLE('',(#399));
#399=FILL_AREA_STYLE_COLOUR('',#400);
#400=COLOUR_RGB('',0.83921568627451,0.886274509803922,0.854901960784314);
ENDSEC;
END-ISO-10303-21;
