ISO-10303-21;
HEADER;
/* Generated by software containing ST-Developer
 * from STEP Tools, Inc. (www.steptools.com) 
 */

FILE_DESCRIPTION(
/* description */ ('Schraubverbindung 11'),
/* implementation_level */ '2;1');

FILE_NAME(
/* name */ 
'\\\\crossprint\\CrossbaseMedia\\daten_aus_vault\\ZEI_CAD_211574-1-REV
01_#SALL_#AIN_#V1.step',
/* time_stamp */ '2022-09-15T21:07:43+02:00',
/* author */ ('MiniTec'),
/* organization */ ('MiniTec GmbH & Co.KG'),
/* preprocessor_version */ 'ST-DEVELOPER v18.1',
/* originating_system */ 'Autodesk Inventor 2021',
/* authorisation */ '');

FILE_SCHEMA (('CONFIG_CONTROL_DESIGN'));
ENDSEC;

DATA;
#10=MECHANICAL_DESIGN_GEOMETRIC_PRESENTATION_REPRESENTATION('',(#13),#434);
#11=SHAPE_REPRESENTATION_RELATIONSHIP('SRR','None',#441,#12);
#12=ADVANCED_BREP_SHAPE_REPRESENTATION('',(#14),#433);
#13=STYLED_ITEM('',(#450),#14);
#14=MANIFOLD_SOLID_BREP('Volumenk\X\F6rper1',#241);
#15=(
BOUNDED_CURVE()
B_SPLINE_CURVE(2,(#391,#392,#393),.UNSPECIFIED.,.F.,.F.)
B_SPLINE_CURVE_WITH_KNOTS((3,3),(0.,0.175265420711688),.UNSPECIFIED.)
CURVE()
GEOMETRIC_REPRESENTATION_ITEM()
RATIONAL_B_SPLINE_CURVE((1.,1.15470053837925,1.))
REPRESENTATION_ITEM('')
);
#16=(
BOUNDED_CURVE()
B_SPLINE_CURVE(2,(#398,#399,#400),.UNSPECIFIED.,.F.,.F.)
B_SPLINE_CURVE_WITH_KNOTS((3,3),(0.,0.175265420711688),.UNSPECIFIED.)
CURVE()
GEOMETRIC_REPRESENTATION_ITEM()
RATIONAL_B_SPLINE_CURVE((1.,1.15470053837926,1.))
REPRESENTATION_ITEM('')
);
#17=(
BOUNDED_CURVE()
B_SPLINE_CURVE(2,(#404,#405,#406),.UNSPECIFIED.,.F.,.F.)
B_SPLINE_CURVE_WITH_KNOTS((3,3),(0.,0.175265420711688),.UNSPECIFIED.)
CURVE()
GEOMETRIC_REPRESENTATION_ITEM()
RATIONAL_B_SPLINE_CURVE((1.,1.15470053837925,1.))
REPRESENTATION_ITEM('')
);
#18=(
BOUNDED_CURVE()
B_SPLINE_CURVE(2,(#410,#411,#412),.UNSPECIFIED.,.F.,.F.)
B_SPLINE_CURVE_WITH_KNOTS((3,3),(0.,0.175265420711689),.UNSPECIFIED.)
CURVE()
GEOMETRIC_REPRESENTATION_ITEM()
RATIONAL_B_SPLINE_CURVE((1.,1.15470053837925,1.))
REPRESENTATION_ITEM('')
);
#19=(
BOUNDED_CURVE()
B_SPLINE_CURVE(2,(#416,#417,#418),.UNSPECIFIED.,.F.,.F.)
B_SPLINE_CURVE_WITH_KNOTS((3,3),(0.,0.087632710355844),.UNSPECIFIED.)
CURVE()
GEOMETRIC_REPRESENTATION_ITEM()
RATIONAL_B_SPLINE_CURVE((1.,1.07735026918962,1.07735026918962))
REPRESENTATION_ITEM('')
);
#20=(
BOUNDED_CURVE()
B_SPLINE_CURVE(2,(#421,#422,#423),.UNSPECIFIED.,.F.,.F.)
B_SPLINE_CURVE_WITH_KNOTS((3,3),(0.087632710355844,0.175265420711688),
 .UNSPECIFIED.)
CURVE()
GEOMETRIC_REPRESENTATION_ITEM()
RATIONAL_B_SPLINE_CURVE((1.07735026918962,1.07735026918962,1.))
REPRESENTATION_ITEM('')
);
#21=(
BOUNDED_CURVE()
B_SPLINE_CURVE(2,(#425,#426,#427),.UNSPECIFIED.,.F.,.F.)
B_SPLINE_CURVE_WITH_KNOTS((3,3),(0.,0.175265420711688),.UNSPECIFIED.)
CURVE()
GEOMETRIC_REPRESENTATION_ITEM()
RATIONAL_B_SPLINE_CURVE((1.,1.15470053837925,1.))
REPRESENTATION_ITEM('')
);
#22=CONICAL_SURFACE('',#273,2.25462,0.785398163397447);
#23=CONICAL_SURFACE('',#283,0.866025403784439,1.0471975511966);
#24=FACE_BOUND('',#54,.T.);
#25=FACE_BOUND('',#58,.T.);
#26=PLANE('',#272);
#27=PLANE('',#275);
#28=PLANE('',#276);
#29=PLANE('',#277);
#30=PLANE('',#278);
#31=PLANE('',#279);
#32=PLANE('',#280);
#33=PLANE('',#281);
#34=PLANE('',#282);
#35=TOROIDAL_SURFACE('',#264,2.6,0.1);
#36=FACE_OUTER_BOUND('',#50,.T.);
#37=FACE_OUTER_BOUND('',#51,.T.);
#38=FACE_OUTER_BOUND('',#52,.T.);
#39=FACE_OUTER_BOUND('',#53,.T.);
#40=FACE_OUTER_BOUND('',#55,.T.);
#41=FACE_OUTER_BOUND('',#56,.T.);
#42=FACE_OUTER_BOUND('',#57,.T.);
#43=FACE_OUTER_BOUND('',#59,.T.);
#44=FACE_OUTER_BOUND('',#60,.T.);
#45=FACE_OUTER_BOUND('',#61,.T.);
#46=FACE_OUTER_BOUND('',#62,.T.);
#47=FACE_OUTER_BOUND('',#63,.T.);
#48=FACE_OUTER_BOUND('',#64,.T.);
#49=FACE_OUTER_BOUND('',#65,.T.);
#50=EDGE_LOOP('',(#161,#162,#163,#164));
#51=EDGE_LOOP('',(#165,#166,#167,#168,#169));
#52=EDGE_LOOP('',(#170,#171,#172,#173,#174,#175));
#53=EDGE_LOOP('',(#176));
#54=EDGE_LOOP('',(#177));
#55=EDGE_LOOP('',(#178,#179,#180,#181,#182));
#56=EDGE_LOOP('',(#183));
#57=EDGE_LOOP('',(#184));
#58=EDGE_LOOP('',(#185,#186,#187,#188,#189,#190));
#59=EDGE_LOOP('',(#191,#192,#193,#194));
#60=EDGE_LOOP('',(#195,#196,#197,#198));
#61=EDGE_LOOP('',(#199,#200,#201,#202));
#62=EDGE_LOOP('',(#203,#204,#205,#206));
#63=EDGE_LOOP('',(#207,#208,#209,#210,#211));
#64=EDGE_LOOP('',(#212,#213,#214,#215));
#65=EDGE_LOOP('',(#216,#217,#218,#219,#220,#221,#222,#223,#224));
#66=LINE('',#353,#82);
#67=LINE('',#368,#83);
#68=LINE('',#373,#84);
#69=LINE('',#378,#85);
#70=LINE('',#380,#86);
#71=LINE('',#382,#87);
#72=LINE('',#384,#88);
#73=LINE('',#386,#89);
#74=LINE('',#387,#90);
#75=LINE('',#394,#91);
#76=LINE('',#395,#92);
#77=LINE('',#401,#93);
#78=LINE('',#407,#94);
#79=LINE('',#413,#95);
#80=LINE('',#420,#96);
#81=LINE('',#430,#97);
#82=VECTOR('',#290,3.75);
#83=VECTOR('',#309,2.5);
#84=VECTOR('',#316,2.25462);
#85=VECTOR('',#321,10.);
#86=VECTOR('',#322,10.);
#87=VECTOR('',#323,10.);
#88=VECTOR('',#324,10.);
#89=VECTOR('',#325,10.);
#90=VECTOR('',#326,10.);
#91=VECTOR('',#329,10.);
#92=VECTOR('',#330,10.);
#93=VECTOR('',#333,10.);
#94=VECTOR('',#336,10.);
#95=VECTOR('',#339,10.);
#96=VECTOR('',#342,10.);
#97=VECTOR('',#347,0.866025403784439);
#98=CIRCLE('',#262,3.75);
#99=CIRCLE('',#263,3.75);
#100=CIRCLE('',#265,2.6);
#101=CIRCLE('',#266,0.1);
#102=CIRCLE('',#267,2.5);
#103=CIRCLE('',#268,2.5);
#104=CIRCLE('',#270,2.5);
#105=CIRCLE('',#271,2.5);
#106=CIRCLE('',#274,2.00924);
#107=VERTEX_POINT('',#350);
#108=VERTEX_POINT('',#352);
#109=VERTEX_POINT('',#356);
#110=VERTEX_POINT('',#358);
#111=VERTEX_POINT('',#360);
#112=VERTEX_POINT('',#364);
#113=VERTEX_POINT('',#365);
#114=VERTEX_POINT('',#371);
#115=VERTEX_POINT('',#376);
#116=VERTEX_POINT('',#377);
#117=VERTEX_POINT('',#379);
#118=VERTEX_POINT('',#381);
#119=VERTEX_POINT('',#383);
#120=VERTEX_POINT('',#385);
#121=VERTEX_POINT('',#389);
#122=VERTEX_POINT('',#390);
#123=VERTEX_POINT('',#397);
#124=VERTEX_POINT('',#403);
#125=VERTEX_POINT('',#409);
#126=VERTEX_POINT('',#415);
#127=VERTEX_POINT('',#419);
#128=VERTEX_POINT('',#429);
#129=EDGE_CURVE('',#107,#107,#98,.T.);
#130=EDGE_CURVE('',#107,#108,#66,.T.);
#131=EDGE_CURVE('',#108,#108,#99,.T.);
#132=EDGE_CURVE('',#109,#109,#100,.T.);
#133=EDGE_CURVE('',#109,#110,#101,.T.);
#134=EDGE_CURVE('',#110,#111,#102,.T.);
#135=EDGE_CURVE('',#111,#110,#103,.T.);
#136=EDGE_CURVE('',#112,#113,#104,.T.);
#137=EDGE_CURVE('',#113,#112,#105,.T.);
#138=EDGE_CURVE('',#113,#111,#67,.T.);
#139=EDGE_CURVE('',#114,#114,#106,.T.);
#140=EDGE_CURVE('',#114,#112,#68,.T.);
#141=EDGE_CURVE('',#115,#116,#69,.T.);
#142=EDGE_CURVE('',#116,#117,#70,.T.);
#143=EDGE_CURVE('',#117,#118,#71,.T.);
#144=EDGE_CURVE('',#118,#119,#72,.T.);
#145=EDGE_CURVE('',#119,#120,#73,.T.);
#146=EDGE_CURVE('',#120,#115,#74,.T.);
#147=EDGE_CURVE('',#121,#122,#15,.T.);
#148=EDGE_CURVE('',#121,#120,#75,.T.);
#149=EDGE_CURVE('',#122,#119,#76,.T.);
#150=EDGE_CURVE('',#123,#121,#16,.T.);
#151=EDGE_CURVE('',#123,#115,#77,.T.);
#152=EDGE_CURVE('',#124,#123,#17,.T.);
#153=EDGE_CURVE('',#124,#116,#78,.T.);
#154=EDGE_CURVE('',#125,#124,#18,.T.);
#155=EDGE_CURVE('',#117,#125,#79,.T.);
#156=EDGE_CURVE('',#122,#126,#19,.T.);
#157=EDGE_CURVE('',#127,#118,#80,.T.);
#158=EDGE_CURVE('',#126,#127,#20,.T.);
#159=EDGE_CURVE('',#127,#125,#21,.T.);
#160=EDGE_CURVE('',#128,#126,#81,.T.);
#161=ORIENTED_EDGE('',*,*,#129,.F.);
#162=ORIENTED_EDGE('',*,*,#130,.T.);
#163=ORIENTED_EDGE('',*,*,#131,.T.);
#164=ORIENTED_EDGE('',*,*,#130,.F.);
#165=ORIENTED_EDGE('',*,*,#132,.T.);
#166=ORIENTED_EDGE('',*,*,#133,.T.);
#167=ORIENTED_EDGE('',*,*,#134,.T.);
#168=ORIENTED_EDGE('',*,*,#135,.T.);
#169=ORIENTED_EDGE('',*,*,#133,.F.);
#170=ORIENTED_EDGE('',*,*,#136,.F.);
#171=ORIENTED_EDGE('',*,*,#137,.F.);
#172=ORIENTED_EDGE('',*,*,#138,.T.);
#173=ORIENTED_EDGE('',*,*,#134,.F.);
#174=ORIENTED_EDGE('',*,*,#135,.F.);
#175=ORIENTED_EDGE('',*,*,#138,.F.);
#176=ORIENTED_EDGE('',*,*,#129,.T.);
#177=ORIENTED_EDGE('',*,*,#132,.F.);
#178=ORIENTED_EDGE('',*,*,#139,.T.);
#179=ORIENTED_EDGE('',*,*,#140,.T.);
#180=ORIENTED_EDGE('',*,*,#136,.T.);
#181=ORIENTED_EDGE('',*,*,#137,.T.);
#182=ORIENTED_EDGE('',*,*,#140,.F.);
#183=ORIENTED_EDGE('',*,*,#139,.F.);
#184=ORIENTED_EDGE('',*,*,#131,.F.);
#185=ORIENTED_EDGE('',*,*,#141,.T.);
#186=ORIENTED_EDGE('',*,*,#142,.T.);
#187=ORIENTED_EDGE('',*,*,#143,.T.);
#188=ORIENTED_EDGE('',*,*,#144,.T.);
#189=ORIENTED_EDGE('',*,*,#145,.T.);
#190=ORIENTED_EDGE('',*,*,#146,.T.);
#191=ORIENTED_EDGE('',*,*,#147,.F.);
#192=ORIENTED_EDGE('',*,*,#148,.T.);
#193=ORIENTED_EDGE('',*,*,#145,.F.);
#194=ORIENTED_EDGE('',*,*,#149,.F.);
#195=ORIENTED_EDGE('',*,*,#150,.F.);
#196=ORIENTED_EDGE('',*,*,#151,.T.);
#197=ORIENTED_EDGE('',*,*,#146,.F.);
#198=ORIENTED_EDGE('',*,*,#148,.F.);
#199=ORIENTED_EDGE('',*,*,#152,.F.);
#200=ORIENTED_EDGE('',*,*,#153,.T.);
#201=ORIENTED_EDGE('',*,*,#141,.F.);
#202=ORIENTED_EDGE('',*,*,#151,.F.);
#203=ORIENTED_EDGE('',*,*,#154,.F.);
#204=ORIENTED_EDGE('',*,*,#155,.F.);
#205=ORIENTED_EDGE('',*,*,#142,.F.);
#206=ORIENTED_EDGE('',*,*,#153,.F.);
#207=ORIENTED_EDGE('',*,*,#156,.F.);
#208=ORIENTED_EDGE('',*,*,#149,.T.);
#209=ORIENTED_EDGE('',*,*,#144,.F.);
#210=ORIENTED_EDGE('',*,*,#157,.F.);
#211=ORIENTED_EDGE('',*,*,#158,.F.);
#212=ORIENTED_EDGE('',*,*,#159,.F.);
#213=ORIENTED_EDGE('',*,*,#157,.T.);
#214=ORIENTED_EDGE('',*,*,#143,.F.);
#215=ORIENTED_EDGE('',*,*,#155,.T.);
#216=ORIENTED_EDGE('',*,*,#160,.T.);
#217=ORIENTED_EDGE('',*,*,#158,.T.);
#218=ORIENTED_EDGE('',*,*,#159,.T.);
#219=ORIENTED_EDGE('',*,*,#154,.T.);
#220=ORIENTED_EDGE('',*,*,#152,.T.);
#221=ORIENTED_EDGE('',*,*,#150,.T.);
#222=ORIENTED_EDGE('',*,*,#147,.T.);
#223=ORIENTED_EDGE('',*,*,#156,.T.);
#224=ORIENTED_EDGE('',*,*,#160,.F.);
#225=CYLINDRICAL_SURFACE('',#261,3.75);
#226=CYLINDRICAL_SURFACE('',#269,2.5);
#227=ADVANCED_FACE('',(#36),#225,.T.);
#228=ADVANCED_FACE('',(#37),#35,.F.);
#229=ADVANCED_FACE('',(#38),#226,.T.);
#230=ADVANCED_FACE('',(#39,#24),#26,.T.);
#231=ADVANCED_FACE('',(#40),#22,.T.);
#232=ADVANCED_FACE('',(#41),#27,.T.);
#233=ADVANCED_FACE('',(#42,#25),#28,.T.);
#234=ADVANCED_FACE('',(#43),#29,.F.);
#235=ADVANCED_FACE('',(#44),#30,.F.);
#236=ADVANCED_FACE('',(#45),#31,.F.);
#237=ADVANCED_FACE('',(#46),#32,.F.);
#238=ADVANCED_FACE('',(#47),#33,.F.);
#239=ADVANCED_FACE('',(#48),#34,.F.);
#240=ADVANCED_FACE('',(#49),#23,.F.);
#241=CLOSED_SHELL('',(#227,#228,#229,#230,#231,#232,#233,#234,#235,#236,
#237,#238,#239,#240));
#242=DERIVED_UNIT_ELEMENT(#244,1.);
#243=DERIVED_UNIT_ELEMENT(#436,-3.);
#244=(
MASS_UNIT()
NAMED_UNIT(*)
SI_UNIT($,.GRAM.)
);
#245=DERIVED_UNIT((#242,#243));
#246=MEASURE_REPRESENTATION_ITEM('density measure',
POSITIVE_RATIO_MEASURE(7.75),#245);
#247=PROPERTY_DEFINITION_REPRESENTATION(#252,#249);
#248=PROPERTY_DEFINITION_REPRESENTATION(#253,#250);
#249=REPRESENTATION('material name',(#251),#433);
#250=REPRESENTATION('density',(#246),#433);
#251=DESCRIPTIVE_REPRESENTATION_ITEM('V2A','V2A');
#252=PROPERTY_DEFINITION('material property','material name',#443);
#253=PROPERTY_DEFINITION('material property','density of part',#443);
#254=DATE_TIME_ROLE('creation_date');
#255=CC_DESIGN_DATE_AND_TIME_ASSIGNMENT(#256,#254,(#443));
#256=DATE_AND_TIME(#257,#258);
#257=CALENDAR_DATE(2010,1,3);
#258=LOCAL_TIME(0,0,0.,#259);
#259=COORDINATED_UNIVERSAL_TIME_OFFSET(0,0,.BEHIND.);
#260=AXIS2_PLACEMENT_3D('placement',#348,#284,#285);
#261=AXIS2_PLACEMENT_3D('',#349,#286,#287);
#262=AXIS2_PLACEMENT_3D('',#351,#288,#289);
#263=AXIS2_PLACEMENT_3D('',#354,#291,#292);
#264=AXIS2_PLACEMENT_3D('',#355,#293,#294);
#265=AXIS2_PLACEMENT_3D('',#357,#295,#296);
#266=AXIS2_PLACEMENT_3D('',#359,#297,#298);
#267=AXIS2_PLACEMENT_3D('',#361,#299,#300);
#268=AXIS2_PLACEMENT_3D('',#362,#301,#302);
#269=AXIS2_PLACEMENT_3D('',#363,#303,#304);
#270=AXIS2_PLACEMENT_3D('',#366,#305,#306);
#271=AXIS2_PLACEMENT_3D('',#367,#307,#308);
#272=AXIS2_PLACEMENT_3D('',#369,#310,#311);
#273=AXIS2_PLACEMENT_3D('',#370,#312,#313);
#274=AXIS2_PLACEMENT_3D('',#372,#314,#315);
#275=AXIS2_PLACEMENT_3D('',#374,#317,#318);
#276=AXIS2_PLACEMENT_3D('',#375,#319,#320);
#277=AXIS2_PLACEMENT_3D('',#388,#327,#328);
#278=AXIS2_PLACEMENT_3D('',#396,#331,#332);
#279=AXIS2_PLACEMENT_3D('',#402,#334,#335);
#280=AXIS2_PLACEMENT_3D('',#408,#337,#338);
#281=AXIS2_PLACEMENT_3D('',#414,#340,#341);
#282=AXIS2_PLACEMENT_3D('',#424,#343,#344);
#283=AXIS2_PLACEMENT_3D('',#428,#345,#346);
#284=DIRECTION('axis',(0.,0.,1.));
#285=DIRECTION('refdir',(1.,0.,0.));
#286=DIRECTION('center_axis',(1.,9.44228612973191E-18,0.));
#287=DIRECTION('ref_axis',(0.,0.,-1.));
#288=DIRECTION('center_axis',(1.,9.44228612973191E-18,0.));
#289=DIRECTION('ref_axis',(0.,0.,-1.));
#290=DIRECTION('',(-1.,-9.44228612973191E-18,0.));
#291=DIRECTION('center_axis',(1.,9.44228612973191E-18,0.));
#292=DIRECTION('ref_axis',(9.44228612973191E-18,-1.,1.22460635382238E-16));
#293=DIRECTION('center_axis',(1.,9.44228612973191E-18,0.));
#294=DIRECTION('ref_axis',(0.,0.,-1.));
#295=DIRECTION('center_axis',(1.,9.44228612973191E-18,0.));
#296=DIRECTION('ref_axis',(9.44228612973191E-18,-1.,1.22460635382238E-16));
#297=DIRECTION('center_axis',(9.44228612973191E-18,-1.,-1.22464679914735E-16));
#298=DIRECTION('ref_axis',(0.,-1.22464679914735E-16,1.));
#299=DIRECTION('center_axis',(-1.,-9.44228612973191E-18,0.));
#300=DIRECTION('ref_axis',(6.93889390390723E-18,-1.,1.22460635382238E-16));
#301=DIRECTION('center_axis',(-1.,-9.44228612973191E-18,0.));
#302=DIRECTION('ref_axis',(6.93889390390723E-18,-1.,1.22460635382238E-16));
#303=DIRECTION('center_axis',(1.,9.44228612973191E-18,0.));
#304=DIRECTION('ref_axis',(0.,1.,0.));
#305=DIRECTION('center_axis',(1.,9.44228612973191E-18,0.));
#306=DIRECTION('ref_axis',(0.,-1.,0.));
#307=DIRECTION('center_axis',(1.,9.44228612973191E-18,0.));
#308=DIRECTION('ref_axis',(0.,-1.,0.));
#309=DIRECTION('',(-1.,-9.44228612973191E-18,0.));
#310=DIRECTION('center_axis',(1.,9.44228612973191E-18,0.));
#311=DIRECTION('ref_axis',(0.,0.,-1.));
#312=DIRECTION('center_axis',(-1.,-9.44228612973191E-18,0.));
#313=DIRECTION('ref_axis',(4.20732074214337E-18,-1.,0.));
#314=DIRECTION('center_axis',(-1.,-9.44228612973191E-18,0.));
#315=DIRECTION('ref_axis',(9.44228612973191E-18,-1.,0.));
#316=DIRECTION('',(-0.707106781186549,0.707106781186546,8.65956056235492E-17));
#317=DIRECTION('center_axis',(1.,9.44228612973191E-18,0.));
#318=DIRECTION('ref_axis',(0.,0.,-1.));
#319=DIRECTION('center_axis',(-1.,-9.44228612973191E-18,0.));
#320=DIRECTION('ref_axis',(0.,0.,1.));
#321=DIRECTION('',(-9.07858195081578E-33,9.61481343191783E-16,1.));
#322=DIRECTION('',(8.17725965814928E-18,-0.866025403784438,0.500000000000001));
#323=DIRECTION('',(8.17725965814929E-18,-0.866025403784439,-0.5));
#324=DIRECTION('',(1.51309699180263E-33,-1.60246890531964E-16,-1.));
#325=DIRECTION('',(-8.17725965814928E-18,0.866025403784438,-0.5));
#326=DIRECTION('',(-8.17725965814929E-18,0.866025403784439,0.5));
#327=DIRECTION('center_axis',(4.72114306486596E-18,-0.5,-0.866025403784439));
#328=DIRECTION('ref_axis',(-1.,0.,-5.45150643876619E-18));
#329=DIRECTION('',(-1.,-9.44228612973191E-18,0.));
#330=DIRECTION('',(-1.,-9.44228612973191E-18,0.));
#331=DIRECTION('center_axis',(-4.72114306486596E-18,0.5,-0.866025403784439));
#332=DIRECTION('ref_axis',(-1.,0.,5.45150643876619E-18));
#333=DIRECTION('',(-1.,-9.44228612973191E-18,0.));
#334=DIRECTION('center_axis',(-9.44228612973191E-18,1.,-9.61481343191783E-16));
#335=DIRECTION('ref_axis',(0.,9.61481343191783E-16,1.));
#336=DIRECTION('',(-1.,-9.44228612973191E-18,0.));
#337=DIRECTION('center_axis',(-4.72114306486596E-18,0.500000000000001,0.866025403784438));
#338=DIRECTION('ref_axis',(1.,0.,5.4515064387662E-18));
#339=DIRECTION('',(1.,9.44228612973191E-18,0.));
#340=DIRECTION('center_axis',(9.44228612973191E-18,-1.,1.60246890531964E-16));
#341=DIRECTION('ref_axis',(0.,-1.60246890531964E-16,-1.));
#342=DIRECTION('',(-1.,-9.44228612973191E-18,0.));
#343=DIRECTION('center_axis',(4.72114306486596E-18,-0.5,0.866025403784439));
#344=DIRECTION('ref_axis',(1.,0.,-5.45150643876619E-18));
#345=DIRECTION('center_axis',(-1.,-9.44228612973191E-18,0.));
#346=DIRECTION('ref_axis',(0.,1.,0.));
#347=DIRECTION('',(-0.5,-0.866025403784439,-1.06057523872491E-16));
#348=CARTESIAN_POINT('',(0.,0.,0.));
#349=CARTESIAN_POINT('Origin',(-3.5,-1.46355435010845E-16,0.));
#350=CARTESIAN_POINT('',(2.22044604925031E-15,-5.72534816240175E-16,3.75));
#351=CARTESIAN_POINT('Origin',(2.22044604925031E-15,-1.13307433556783E-16,
0.));
#352=CARTESIAN_POINT('',(-3.5,-6.05597984691102E-16,3.75));
#353=CARTESIAN_POINT('',(-3.5,-6.05597984691102E-16,3.75));
#354=CARTESIAN_POINT('Origin',(-3.5,-1.46355435010845E-16,0.));
#355=CARTESIAN_POINT('Origin',(0.100000000000002,-1.1236320494381E-16,0.));
#356=CARTESIAN_POINT('',(2.25514051876985E-15,-4.31715601335095E-16,2.6));
#357=CARTESIAN_POINT('Origin',(2.25514051876985E-15,-1.13307433556783E-16,
0.));
#358=CARTESIAN_POINT('',(0.100000000000002,-4.18524904730648E-16,2.5));
#359=CARTESIAN_POINT('Origin',(0.100000000000002,-4.30771372722121E-16,
2.6));
#360=CARTESIAN_POINT('',(0.100000000000002,-2.5,-3.06161699786838E-16));
#361=CARTESIAN_POINT('Origin',(0.100000000000002,-1.1236320494381E-16,0.));
#362=CARTESIAN_POINT('Origin',(0.100000000000002,-1.1236320494381E-16,0.));
#363=CARTESIAN_POINT('Origin',(7.2,-4.53229734227132E-17,0.));
#364=CARTESIAN_POINT('',(11.50924,2.5,3.06151588455594E-16));
#365=CARTESIAN_POINT('',(11.50924,-2.5,-3.06161699786838E-16));
#366=CARTESIAN_POINT('Origin',(11.50924,-4.63389634102725E-18,0.));
#367=CARTESIAN_POINT('Origin',(11.50924,-4.63389634102725E-18,0.));
#368=CARTESIAN_POINT('',(7.2,-2.5,-3.06161699786838E-16));
#369=CARTESIAN_POINT('Origin',(2.22044604925031E-15,3.375,0.));
#370=CARTESIAN_POINT('Origin',(11.75462,-2.31694817051362E-18,0.));
#371=CARTESIAN_POINT('',(12.,2.00924,-2.46052807035407E-16));
#372=CARTESIAN_POINT('Origin',(12.,0.,0.));
#373=CARTESIAN_POINT('',(11.75462,2.25462,2.7611131662936E-16));
#374=CARTESIAN_POINT('Origin',(12.,1.25,0.));
#375=CARTESIAN_POINT('Origin',(-3.5,2.99102540378444,0.));
#376=CARTESIAN_POINT('',(-3.5,1.5,-0.866025403784439));
#377=CARTESIAN_POINT('',(-3.5,1.5,0.866025403784437));
#378=CARTESIAN_POINT('',(-3.5,1.5,0.433012701892218));
#379=CARTESIAN_POINT('',(-3.5,6.57596127341368E-17,1.73205080756888));
#380=CARTESIAN_POINT('',(-3.5,0.375,1.51554445662277));
#381=CARTESIAN_POINT('',(-3.5,-1.5,0.866025403784439));
#382=CARTESIAN_POINT('',(-3.5,-1.125,1.08253175473055));
#383=CARTESIAN_POINT('',(-3.5,-1.5,-0.866025403784438));
#384=CARTESIAN_POINT('',(-3.5,-1.5,-0.433012701892219));
#385=CARTESIAN_POINT('',(-3.5,-3.55242350351268E-16,-1.73205080756888));
#386=CARTESIAN_POINT('',(-3.5,-0.375000000000001,-1.51554445662277));
#387=CARTESIAN_POINT('',(-3.5,1.125,-1.08253175473055));
#388=CARTESIAN_POINT('Origin',(-3.5,-3.55242350351268E-16,-1.73205080756888));
#389=CARTESIAN_POINT('',(-0.799999999999996,-1.22350673015302E-15,-1.73205080756888));
#390=CARTESIAN_POINT('',(-0.799999999999996,-1.5,-0.866025403784438));
#391=CARTESIAN_POINT('Ctrl Pts',(-0.799999999999996,-7.21248292138031E-16,
-1.73205080756888));
#392=CARTESIAN_POINT('Ctrl Pts',(-0.549999999999996,-0.750000000000001,
-1.29903810567666));
#393=CARTESIAN_POINT('Ctrl Pts',(-0.799999999999996,-1.5,-0.866025403784438));
#394=CARTESIAN_POINT('',(-2.15,-5.55111512312578E-16,-1.73205080756888));
#395=CARTESIAN_POINT('',(-2.15,-1.5,-0.866025403784438));
#396=CARTESIAN_POINT('Origin',(-3.5,1.5,-0.866025403784439));
#397=CARTESIAN_POINT('',(-0.799999999999996,1.5,-0.866025403784441));
#398=CARTESIAN_POINT('Ctrl Pts',(-0.799999999999996,1.5,-0.866025403784438));
#399=CARTESIAN_POINT('Ctrl Pts',(-0.549999999999996,0.75,-1.29903810567666));
#400=CARTESIAN_POINT('Ctrl Pts',(-0.799999999999996,-2.10902707291948E-15,
-1.73205080756888));
#401=CARTESIAN_POINT('',(-2.15,1.5,-0.866025403784441));
#402=CARTESIAN_POINT('Origin',(-3.5,1.5,0.866025403784437));
#403=CARTESIAN_POINT('',(-0.799999999999995,1.5,0.866025403784436));
#404=CARTESIAN_POINT('Ctrl Pts',(-0.799999999999996,1.5,0.86602540378444));
#405=CARTESIAN_POINT('Ctrl Pts',(-0.549999999999995,1.5,-1.23682824533907E-15));
#406=CARTESIAN_POINT('Ctrl Pts',(-0.799999999999996,1.5,-0.866025403784443));
#407=CARTESIAN_POINT('',(-2.15,1.5,0.866025403784437));
#408=CARTESIAN_POINT('Origin',(-3.5,-3.30480014540617E-17,1.73205080756888));
#409=CARTESIAN_POINT('',(-0.799999999999996,-3.90839461684157E-16,1.73205080756888));
#410=CARTESIAN_POINT('Ctrl Pts',(-0.799999999999996,-2.8029164633102E-15,
1.73205080756888));
#411=CARTESIAN_POINT('Ctrl Pts',(-0.549999999999994,0.75,1.29903810567666));
#412=CARTESIAN_POINT('Ctrl Pts',(-0.799999999999996,1.5,0.866025403784435));
#413=CARTESIAN_POINT('',(-2.15,0.,1.73205080756888));
#414=CARTESIAN_POINT('Origin',(-3.5,-1.5,-0.866025403784438));
#415=CARTESIAN_POINT('',(-0.666025403784435,-1.5,-2.36764343999331E-16));
#416=CARTESIAN_POINT('Ctrl Pts',(-0.799999999999996,-1.5,-0.86602540378444));
#417=CARTESIAN_POINT('Ctrl Pts',(-0.666025403784435,-1.5,-0.401923788646686));
#418=CARTESIAN_POINT('Ctrl Pts',(-0.666025403784435,-1.5,-2.89831668126558E-16));
#419=CARTESIAN_POINT('',(-0.799999999999996,-1.5,0.866025403784439));
#420=CARTESIAN_POINT('',(-2.15,-1.5,0.866025403784438));
#421=CARTESIAN_POINT('Ctrl Pts',(-0.666025403784435,-1.5,-2.89831668126558E-16));
#422=CARTESIAN_POINT('Ctrl Pts',(-0.666025403784435,-1.5,0.401923788646686));
#423=CARTESIAN_POINT('Ctrl Pts',(-0.799999999999996,-1.5,0.866025403784441));
#424=CARTESIAN_POINT('Origin',(-3.5,-1.5,0.866025403784439));
#425=CARTESIAN_POINT('Ctrl Pts',(-0.799999999999996,-1.5,0.866025403784438));
#426=CARTESIAN_POINT('Ctrl Pts',(-0.549999999999995,-0.75,1.29903810567666));
#427=CARTESIAN_POINT('Ctrl Pts',(-0.799999999999996,1.63797563519043E-15,
1.73205080756888));
#428=CARTESIAN_POINT('Origin',(-0.299999999999996,-1.16140119395703E-16,
0.));
#429=CARTESIAN_POINT('',(0.200000000000004,-1.11418976330837E-16,0.));
#430=CARTESIAN_POINT('',(-0.299999999999996,-0.866025403784439,-1.06057523872491E-16));
#431=UNCERTAINTY_MEASURE_WITH_UNIT(LENGTH_MEASURE(0.01),#435,
'DISTANCE_ACCURACY_VALUE',
'Maximum model space distance between geometric entities at asserted c
onnectivities');
#432=UNCERTAINTY_MEASURE_WITH_UNIT(LENGTH_MEASURE(0.01),#435,
'DISTANCE_ACCURACY_VALUE',
'Maximum model space distance between geometric entities at asserted c
onnectivities');
#433=(
GEOMETRIC_REPRESENTATION_CONTEXT(3)
GLOBAL_UNCERTAINTY_ASSIGNED_CONTEXT((#431))
GLOBAL_UNIT_ASSIGNED_CONTEXT((#435,#437,#438))
REPRESENTATION_CONTEXT('','3D')
);
#434=(
GEOMETRIC_REPRESENTATION_CONTEXT(3)
GLOBAL_UNCERTAINTY_ASSIGNED_CONTEXT((#432))
GLOBAL_UNIT_ASSIGNED_CONTEXT((#435,#437,#438))
REPRESENTATION_CONTEXT('','3D')
);
#435=(
LENGTH_UNIT()
NAMED_UNIT(*)
SI_UNIT(.MILLI.,.METRE.)
);
#436=(
LENGTH_UNIT()
NAMED_UNIT(*)
SI_UNIT(.CENTI.,.METRE.)
);
#437=(
NAMED_UNIT(*)
PLANE_ANGLE_UNIT()
SI_UNIT($,.RADIAN.)
);
#438=(
NAMED_UNIT(*)
SI_UNIT($,.STERADIAN.)
SOLID_ANGLE_UNIT()
);
#439=SHAPE_DEFINITION_REPRESENTATION(#440,#441);
#440=PRODUCT_DEFINITION_SHAPE('',$,#443);
#441=SHAPE_REPRESENTATION('',(#260),#433);
#442=DESIGN_CONTEXT('part definition',#447,'design');
#443=PRODUCT_DEFINITION('21-1574-1FZ.000','00026727',#444,#442);
#444=PRODUCT_DEFINITION_FORMATION('01',$,#449);
#445=PRODUCT_RELATED_PRODUCT_CATEGORY('00026727','00026727',(#449));
#446=APPLICATION_PROTOCOL_DEFINITION('international standard',
'ap203_configuration_controlled_3d_design_of_mechanical_parts_and_asse
mblies_mim_lf',2004,#447);
#447=APPLICATION_CONTEXT(
'Configuration Controlled 3D Design of Mechanical Parts and Assemblies');
#448=MECHANICAL_CONTEXT('part definition',#447,'mechanical');
#449=PRODUCT('21-1574-1FZ.000','00026727',$,(#448));
#450=PRESENTATION_STYLE_ASSIGNMENT((#451));
#451=SURFACE_STYLE_USAGE(.BOTH.,#452);
#452=SURFACE_SIDE_STYLE('',(#453));
#453=SURFACE_STYLE_FILL_AREA(#454);
#454=FILL_AREA_STYLE('',(#455));
#455=FILL_AREA_STYLE_COLOUR('',#456);
#456=COLOUR_RGB('',0.749019607843137,0.749019607843137,0.752941176470588);
ENDSEC;
END-ISO-10303-21;
