ISO-10303-21;
HEADER;
/* Generated by software containing ST-Developer
 * from STEP Tools, Inc. (www.steptools.com) 
 */

FILE_DESCRIPTION(
/* description */ ('Senkkopfschraube ISO 10642 - M6 x 12'),
/* implementation_level */ '2;1');

FILE_NAME(
/* name */ '\\\\fileserver\\Daten2\\STEP Daten fuer PIM\\211518-0.step',

/* time_stamp */ '2021-08-27T12:52:22+02:00',
/* author */ ('Oster'),
/* organization */ (''),
/* preprocessor_version */ 'ST-DEVELOPER v18.1',
/* originating_system */ 'Autodesk Inventor 2021',
/* authorisation */ '');

FILE_SCHEMA (('AUTOMOTIVE_DESIGN { 1 0 10303 214 3 1 1 }'));
ENDSEC;

DATA;
#10=MECHANICAL_DESIGN_GEOMETRIC_PRESENTATION_REPRESENTATION('',(#13),#403);
#11=SHAPE_REPRESENTATION_RELATIONSHIP('SRR','None',#410,#12);
#12=ADVANCED_BREP_SHAPE_REPRESENTATION('',(#14),#402);
#13=STYLED_ITEM('',(#419),#14);
#14=MANIFOLD_SOLID_BREP('Volumenk\X\F6rper1',#226);
#15=FACE_BOUND('',#57,.T.);
#16=(
BOUNDED_CURVE()
B_SPLINE_CURVE(2,(#339,#340,#341),.UNSPECIFIED.,.F.,.F.)
B_SPLINE_CURVE_WITH_KNOTS((3,3),(0.,0.116843613807792),.UNSPECIFIED.)
CURVE()
GEOMETRIC_REPRESENTATION_ITEM()
RATIONAL_B_SPLINE_CURVE((1.,1.07735026918962,1.07735026918962))
REPRESENTATION_ITEM('')
);
#17=(
BOUNDED_CURVE()
B_SPLINE_CURVE(2,(#348,#349,#350),.UNSPECIFIED.,.F.,.F.)
B_SPLINE_CURVE_WITH_KNOTS((3,3),(0.116843613807792,0.233687227615584),
 .UNSPECIFIED.)
CURVE()
GEOMETRIC_REPRESENTATION_ITEM()
RATIONAL_B_SPLINE_CURVE((1.07735026918962,1.07735026918962,1.))
REPRESENTATION_ITEM('')
);
#18=(
BOUNDED_CURVE()
B_SPLINE_CURVE(2,(#353,#354,#355),.UNSPECIFIED.,.F.,.F.)
B_SPLINE_CURVE_WITH_KNOTS((3,3),(0.,0.233687227615584),.UNSPECIFIED.)
CURVE()
GEOMETRIC_REPRESENTATION_ITEM()
RATIONAL_B_SPLINE_CURVE((1.,1.15470053837925,1.))
REPRESENTATION_ITEM('')
);
#19=(
BOUNDED_CURVE()
B_SPLINE_CURVE(2,(#361,#362,#363),.UNSPECIFIED.,.F.,.F.)
B_SPLINE_CURVE_WITH_KNOTS((3,3),(0.,0.233687227615584),.UNSPECIFIED.)
CURVE()
GEOMETRIC_REPRESENTATION_ITEM()
RATIONAL_B_SPLINE_CURVE((1.,1.15470053837925,1.))
REPRESENTATION_ITEM('')
);
#20=(
BOUNDED_CURVE()
B_SPLINE_CURVE(2,(#369,#370,#371),.UNSPECIFIED.,.F.,.F.)
B_SPLINE_CURVE_WITH_KNOTS((3,3),(0.,0.233687227615584),.UNSPECIFIED.)
CURVE()
GEOMETRIC_REPRESENTATION_ITEM()
RATIONAL_B_SPLINE_CURVE((1.,1.15470053837925,1.))
REPRESENTATION_ITEM('')
);
#21=(
BOUNDED_CURVE()
B_SPLINE_CURVE(2,(#377,#378,#379),.UNSPECIFIED.,.F.,.F.)
B_SPLINE_CURVE_WITH_KNOTS((3,3),(0.,0.233687227615584),.UNSPECIFIED.)
CURVE()
GEOMETRIC_REPRESENTATION_ITEM()
RATIONAL_B_SPLINE_CURVE((1.,1.15470053837925,1.))
REPRESENTATION_ITEM('')
);
#22=(
BOUNDED_CURVE()
B_SPLINE_CURVE(2,(#384,#385,#386),.UNSPECIFIED.,.F.,.F.)
B_SPLINE_CURVE_WITH_KNOTS((3,3),(0.,0.233687227615584),.UNSPECIFIED.)
CURVE()
GEOMETRIC_REPRESENTATION_ITEM()
RATIONAL_B_SPLINE_CURVE((1.,1.15470053837926,1.))
REPRESENTATION_ITEM('')
);
#23=PLANE('',#252);
#24=PLANE('',#253);
#25=PLANE('',#254);
#26=PLANE('',#255);
#27=PLANE('',#256);
#28=PLANE('',#257);
#29=PLANE('',#258);
#30=PLANE('',#260);
#31=CYLINDRICAL_SURFACE('',#250,2.99999999999999);
#32=CYLINDRICAL_SURFACE('',#262,5.67000000000001);
#33=FACE_OUTER_BOUND('',#46,.T.);
#34=FACE_OUTER_BOUND('',#47,.T.);
#35=FACE_OUTER_BOUND('',#48,.T.);
#36=FACE_OUTER_BOUND('',#49,.T.);
#37=FACE_OUTER_BOUND('',#50,.T.);
#38=FACE_OUTER_BOUND('',#51,.T.);
#39=FACE_OUTER_BOUND('',#52,.T.);
#40=FACE_OUTER_BOUND('',#53,.T.);
#41=FACE_OUTER_BOUND('',#54,.T.);
#42=FACE_OUTER_BOUND('',#55,.T.);
#43=FACE_OUTER_BOUND('',#56,.T.);
#44=FACE_OUTER_BOUND('',#58,.T.);
#45=FACE_OUTER_BOUND('',#59,.T.);
#46=EDGE_LOOP('',(#150,#151,#152,#153,#154));
#47=EDGE_LOOP('',(#155,#156,#157,#158,#159));
#48=EDGE_LOOP('',(#160));
#49=EDGE_LOOP('',(#161,#162,#163,#164,#165));
#50=EDGE_LOOP('',(#166,#167,#168,#169));
#51=EDGE_LOOP('',(#170,#171,#172,#173));
#52=EDGE_LOOP('',(#174,#175,#176,#177));
#53=EDGE_LOOP('',(#178,#179,#180,#181));
#54=EDGE_LOOP('',(#182,#183,#184,#185));
#55=EDGE_LOOP('',(#186,#187,#188,#189,#190,#191,#192,#193,#194));
#56=EDGE_LOOP('',(#195));
#57=EDGE_LOOP('',(#196,#197,#198,#199,#200,#201));
#58=EDGE_LOOP('',(#202,#203,#204,#205));
#59=EDGE_LOOP('',(#206,#207,#208,#209));
#60=LINE('',#327,#77);
#61=LINE('',#333,#78);
#62=LINE('',#343,#79);
#63=LINE('',#345,#80);
#64=LINE('',#347,#81);
#65=LINE('',#357,#82);
#66=LINE('',#358,#83);
#67=LINE('',#365,#84);
#68=LINE('',#366,#85);
#69=LINE('',#373,#86);
#70=LINE('',#374,#87);
#71=LINE('',#381,#88);
#72=LINE('',#382,#89);
#73=LINE('',#387,#90);
#74=LINE('',#390,#91);
#75=LINE('',#397,#92);
#76=LINE('',#399,#93);
#77=VECTOR('',#271,2.69327499999999);
#78=VECTOR('',#278,2.99999999999999);
#79=VECTOR('',#285,10.);
#80=VECTOR('',#286,10.);
#81=VECTOR('',#287,10.);
#82=VECTOR('',#290,10.);
#83=VECTOR('',#291,10.);
#84=VECTOR('',#294,10.);
#85=VECTOR('',#295,10.);
#86=VECTOR('',#298,10.);
#87=VECTOR('',#299,10.);
#88=VECTOR('',#302,10.);
#89=VECTOR('',#303,10.);
#90=VECTOR('',#306,10.);
#91=VECTOR('',#309,1.15470053837925);
#92=VECTOR('',#318,5.67000000000001);
#93=VECTOR('',#321,4.33500000000001);
#94=CIRCLE('',#247,2.38654999999999);
#95=CIRCLE('',#248,2.99999999999999);
#96=CIRCLE('',#249,2.99999999999999);
#97=CIRCLE('',#251,3.);
#98=CIRCLE('',#261,5.67000000000001);
#99=CIRCLE('',#263,5.67000000000001);
#100=VERTEX_POINT('',#324);
#101=VERTEX_POINT('',#326);
#102=VERTEX_POINT('',#328);
#103=VERTEX_POINT('',#332);
#104=VERTEX_POINT('',#337);
#105=VERTEX_POINT('',#338);
#106=VERTEX_POINT('',#342);
#107=VERTEX_POINT('',#344);
#108=VERTEX_POINT('',#346);
#109=VERTEX_POINT('',#352);
#110=VERTEX_POINT('',#356);
#111=VERTEX_POINT('',#360);
#112=VERTEX_POINT('',#364);
#113=VERTEX_POINT('',#368);
#114=VERTEX_POINT('',#372);
#115=VERTEX_POINT('',#376);
#116=VERTEX_POINT('',#380);
#117=VERTEX_POINT('',#389);
#118=VERTEX_POINT('',#392);
#119=VERTEX_POINT('',#395);
#120=EDGE_CURVE('',#100,#100,#94,.T.);
#121=EDGE_CURVE('',#100,#101,#60,.T.);
#122=EDGE_CURVE('',#101,#102,#95,.T.);
#123=EDGE_CURVE('',#102,#101,#96,.T.);
#124=EDGE_CURVE('',#102,#103,#61,.T.);
#125=EDGE_CURVE('',#103,#103,#97,.T.);
#126=EDGE_CURVE('',#104,#105,#16,.T.);
#127=EDGE_CURVE('',#104,#106,#62,.T.);
#128=EDGE_CURVE('',#107,#106,#63,.T.);
#129=EDGE_CURVE('',#108,#107,#64,.T.);
#130=EDGE_CURVE('',#105,#108,#17,.T.);
#131=EDGE_CURVE('',#109,#104,#18,.T.);
#132=EDGE_CURVE('',#109,#110,#65,.T.);
#133=EDGE_CURVE('',#106,#110,#66,.T.);
#134=EDGE_CURVE('',#111,#109,#19,.T.);
#135=EDGE_CURVE('',#111,#112,#67,.T.);
#136=EDGE_CURVE('',#110,#112,#68,.T.);
#137=EDGE_CURVE('',#113,#111,#20,.T.);
#138=EDGE_CURVE('',#114,#113,#69,.T.);
#139=EDGE_CURVE('',#112,#114,#70,.T.);
#140=EDGE_CURVE('',#108,#115,#21,.T.);
#141=EDGE_CURVE('',#116,#107,#71,.T.);
#142=EDGE_CURVE('',#115,#116,#72,.T.);
#143=EDGE_CURVE('',#115,#113,#22,.T.);
#144=EDGE_CURVE('',#114,#116,#73,.T.);
#145=EDGE_CURVE('',#117,#105,#74,.T.);
#146=EDGE_CURVE('',#118,#118,#98,.T.);
#147=EDGE_CURVE('',#119,#119,#99,.T.);
#148=EDGE_CURVE('',#119,#118,#75,.T.);
#149=EDGE_CURVE('',#103,#119,#76,.T.);
#150=ORIENTED_EDGE('',*,*,#120,.T.);
#151=ORIENTED_EDGE('',*,*,#121,.T.);
#152=ORIENTED_EDGE('',*,*,#122,.T.);
#153=ORIENTED_EDGE('',*,*,#123,.T.);
#154=ORIENTED_EDGE('',*,*,#121,.F.);
#155=ORIENTED_EDGE('',*,*,#122,.F.);
#156=ORIENTED_EDGE('',*,*,#123,.F.);
#157=ORIENTED_EDGE('',*,*,#124,.T.);
#158=ORIENTED_EDGE('',*,*,#125,.T.);
#159=ORIENTED_EDGE('',*,*,#124,.F.);
#160=ORIENTED_EDGE('',*,*,#120,.F.);
#161=ORIENTED_EDGE('',*,*,#126,.F.);
#162=ORIENTED_EDGE('',*,*,#127,.T.);
#163=ORIENTED_EDGE('',*,*,#128,.F.);
#164=ORIENTED_EDGE('',*,*,#129,.F.);
#165=ORIENTED_EDGE('',*,*,#130,.F.);
#166=ORIENTED_EDGE('',*,*,#131,.F.);
#167=ORIENTED_EDGE('',*,*,#132,.T.);
#168=ORIENTED_EDGE('',*,*,#133,.F.);
#169=ORIENTED_EDGE('',*,*,#127,.F.);
#170=ORIENTED_EDGE('',*,*,#134,.F.);
#171=ORIENTED_EDGE('',*,*,#135,.T.);
#172=ORIENTED_EDGE('',*,*,#136,.F.);
#173=ORIENTED_EDGE('',*,*,#132,.F.);
#174=ORIENTED_EDGE('',*,*,#137,.F.);
#175=ORIENTED_EDGE('',*,*,#138,.F.);
#176=ORIENTED_EDGE('',*,*,#139,.F.);
#177=ORIENTED_EDGE('',*,*,#135,.F.);
#178=ORIENTED_EDGE('',*,*,#140,.F.);
#179=ORIENTED_EDGE('',*,*,#129,.T.);
#180=ORIENTED_EDGE('',*,*,#141,.F.);
#181=ORIENTED_EDGE('',*,*,#142,.F.);
#182=ORIENTED_EDGE('',*,*,#143,.F.);
#183=ORIENTED_EDGE('',*,*,#142,.T.);
#184=ORIENTED_EDGE('',*,*,#144,.F.);
#185=ORIENTED_EDGE('',*,*,#138,.T.);
#186=ORIENTED_EDGE('',*,*,#145,.T.);
#187=ORIENTED_EDGE('',*,*,#130,.T.);
#188=ORIENTED_EDGE('',*,*,#140,.T.);
#189=ORIENTED_EDGE('',*,*,#143,.T.);
#190=ORIENTED_EDGE('',*,*,#137,.T.);
#191=ORIENTED_EDGE('',*,*,#134,.T.);
#192=ORIENTED_EDGE('',*,*,#131,.T.);
#193=ORIENTED_EDGE('',*,*,#126,.T.);
#194=ORIENTED_EDGE('',*,*,#145,.F.);
#195=ORIENTED_EDGE('',*,*,#146,.F.);
#196=ORIENTED_EDGE('',*,*,#139,.T.);
#197=ORIENTED_EDGE('',*,*,#144,.T.);
#198=ORIENTED_EDGE('',*,*,#141,.T.);
#199=ORIENTED_EDGE('',*,*,#128,.T.);
#200=ORIENTED_EDGE('',*,*,#133,.T.);
#201=ORIENTED_EDGE('',*,*,#136,.T.);
#202=ORIENTED_EDGE('',*,*,#147,.F.);
#203=ORIENTED_EDGE('',*,*,#148,.T.);
#204=ORIENTED_EDGE('',*,*,#146,.T.);
#205=ORIENTED_EDGE('',*,*,#148,.F.);
#206=ORIENTED_EDGE('',*,*,#125,.F.);
#207=ORIENTED_EDGE('',*,*,#149,.T.);
#208=ORIENTED_EDGE('',*,*,#147,.T.);
#209=ORIENTED_EDGE('',*,*,#149,.F.);
#210=CONICAL_SURFACE('',#246,2.69327499999999,0.785398163397449);
#211=CONICAL_SURFACE('',#259,1.15470053837925,1.0471975511966);
#212=CONICAL_SURFACE('',#264,4.33500000000001,0.785398163397448);
#213=ADVANCED_FACE('',(#33),#210,.T.);
#214=ADVANCED_FACE('',(#34),#31,.T.);
#215=ADVANCED_FACE('',(#35),#23,.T.);
#216=ADVANCED_FACE('',(#36),#24,.F.);
#217=ADVANCED_FACE('',(#37),#25,.F.);
#218=ADVANCED_FACE('',(#38),#26,.F.);
#219=ADVANCED_FACE('',(#39),#27,.F.);
#220=ADVANCED_FACE('',(#40),#28,.F.);
#221=ADVANCED_FACE('',(#41),#29,.F.);
#222=ADVANCED_FACE('',(#42),#211,.F.);
#223=ADVANCED_FACE('',(#43,#15),#30,.T.);
#224=ADVANCED_FACE('',(#44),#32,.T.);
#225=ADVANCED_FACE('',(#45),#212,.T.);
#226=CLOSED_SHELL('',(#213,#214,#215,#216,#217,#218,#219,#220,#221,#222,
#223,#224,#225));
#227=DERIVED_UNIT_ELEMENT(#229,1.);
#228=DERIVED_UNIT_ELEMENT(#405,-3.);
#229=(
MASS_UNIT()
NAMED_UNIT(*)
SI_UNIT($,.GRAM.)
);
#230=DERIVED_UNIT((#227,#228));
#231=MEASURE_REPRESENTATION_ITEM('density measure',
POSITIVE_RATIO_MEASURE(7.85),#230);
#232=PROPERTY_DEFINITION_REPRESENTATION(#237,#234);
#233=PROPERTY_DEFINITION_REPRESENTATION(#238,#235);
#234=REPRESENTATION('material name',(#236),#402);
#235=REPRESENTATION('density',(#231),#402);
#236=DESCRIPTIVE_REPRESENTATION_ITEM('Stahl 8.8.','Stahl 8.8.');
#237=PROPERTY_DEFINITION('material property','material name',#412);
#238=PROPERTY_DEFINITION('material property','density of part',#412);
#239=DATE_TIME_ROLE('creation_date');
#240=APPLIED_DATE_AND_TIME_ASSIGNMENT(#241,#239,(#412));
#241=DATE_AND_TIME(#242,#243);
#242=CALENDAR_DATE(2008,11,9);
#243=LOCAL_TIME(0,0,0.,#244);
#244=COORDINATED_UNIVERSAL_TIME_OFFSET(0,0,.BEHIND.);
#245=AXIS2_PLACEMENT_3D('placement',#322,#265,#266);
#246=AXIS2_PLACEMENT_3D('',#323,#267,#268);
#247=AXIS2_PLACEMENT_3D('',#325,#269,#270);
#248=AXIS2_PLACEMENT_3D('',#329,#272,#273);
#249=AXIS2_PLACEMENT_3D('',#330,#274,#275);
#250=AXIS2_PLACEMENT_3D('',#331,#276,#277);
#251=AXIS2_PLACEMENT_3D('',#334,#279,#280);
#252=AXIS2_PLACEMENT_3D('',#335,#281,#282);
#253=AXIS2_PLACEMENT_3D('',#336,#283,#284);
#254=AXIS2_PLACEMENT_3D('',#351,#288,#289);
#255=AXIS2_PLACEMENT_3D('',#359,#292,#293);
#256=AXIS2_PLACEMENT_3D('',#367,#296,#297);
#257=AXIS2_PLACEMENT_3D('',#375,#300,#301);
#258=AXIS2_PLACEMENT_3D('',#383,#304,#305);
#259=AXIS2_PLACEMENT_3D('',#388,#307,#308);
#260=AXIS2_PLACEMENT_3D('',#391,#310,#311);
#261=AXIS2_PLACEMENT_3D('',#393,#312,#313);
#262=AXIS2_PLACEMENT_3D('',#394,#314,#315);
#263=AXIS2_PLACEMENT_3D('',#396,#316,#317);
#264=AXIS2_PLACEMENT_3D('',#398,#319,#320);
#265=DIRECTION('axis',(0.,0.,1.));
#266=DIRECTION('refdir',(1.,0.,0.));
#267=DIRECTION('center_axis',(-1.,6.9890784497596E-32,0.));
#268=DIRECTION('ref_axis',(-3.0965618390758E-32,-1.,0.));
#269=DIRECTION('center_axis',(-1.,6.98907844975959E-32,0.));
#270=DIRECTION('ref_axis',(-6.98907844975959E-32,-1.,0.));
#271=DIRECTION('',(-0.707106781186547,0.707106781186548,8.65956056235494E-17));
#272=DIRECTION('center_axis',(1.,-6.98907844975959E-32,0.));
#273=DIRECTION('ref_axis',(0.,-1.,0.));
#274=DIRECTION('center_axis',(1.,-6.98907844975959E-32,0.));
#275=DIRECTION('ref_axis',(0.,-1.,0.));
#276=DIRECTION('center_axis',(1.,-6.98907844975959E-32,0.));
#277=DIRECTION('ref_axis',(0.,1.,0.));
#278=DIRECTION('',(-1.,6.98907844975959E-32,0.));
#279=DIRECTION('center_axis',(1.,-6.98907844975959E-32,0.));
#280=DIRECTION('ref_axis',(0.,1.,0.));
#281=DIRECTION('center_axis',(1.,-6.98907844975959E-32,0.));
#282=DIRECTION('ref_axis',(0.,0.,-1.));
#283=DIRECTION('center_axis',(-6.98907844975959E-32,-1.,2.40370335797945E-16));
#284=DIRECTION('ref_axis',(0.,-2.40370335797945E-16,-1.));
#285=DIRECTION('',(-1.,6.98907844975959E-32,0.));
#286=DIRECTION('',(-1.6799671338869E-47,-2.40370335797945E-16,-1.));
#287=DIRECTION('',(-1.,6.98907844975959E-32,0.));
#288=DIRECTION('center_axis',(-3.4945392248798E-32,-0.5,-0.866025403784439));
#289=DIRECTION('ref_axis',(-1.,0.,4.03514632435611E-32));
#290=DIRECTION('',(-1.,6.98907844975959E-32,0.));
#291=DIRECTION('',(6.05271948653417E-32,0.866025403784439,-0.5));
#292=DIRECTION('center_axis',(3.4945392248798E-32,0.5,-0.866025403784439));
#293=DIRECTION('ref_axis',(-1.,0.,-4.03514632435611E-32));
#294=DIRECTION('',(-1.,6.98907844975959E-32,0.));
#295=DIRECTION('',(6.05271948653417E-32,0.866025403784439,0.5));
#296=DIRECTION('center_axis',(6.98907844975959E-32,1.,-6.00925839494864E-16));
#297=DIRECTION('ref_axis',(0.,6.00925839494864E-16,1.));
#298=DIRECTION('',(1.,-6.98907844975959E-32,0.));
#299=DIRECTION('',(4.19991783471725E-47,6.00925839494864E-16,1.));
#300=DIRECTION('center_axis',(-3.4945392248798E-32,-0.5,0.866025403784439));
#301=DIRECTION('ref_axis',(1.,0.,4.03514632435611E-32));
#302=DIRECTION('',(-6.05271948653417E-32,-0.866025403784439,-0.5));
#303=DIRECTION('',(-1.,6.98907844975959E-32,0.));
#304=DIRECTION('center_axis',(3.4945392248798E-32,0.500000000000001,0.866025403784438));
#305=DIRECTION('ref_axis',(1.,0.,-4.03514632435612E-32));
#306=DIRECTION('',(-6.05271948653417E-32,-0.866025403784438,0.500000000000001));
#307=DIRECTION('center_axis',(-1.,6.98907844975959E-32,0.));
#308=DIRECTION('ref_axis',(0.,1.,0.));
#309=DIRECTION('',(-0.5,-0.866025403784438,-1.06057523872491E-16));
#310=DIRECTION('center_axis',(-1.,6.98907844975959E-32,0.));
#311=DIRECTION('ref_axis',(0.,0.,1.));
#312=DIRECTION('center_axis',(1.,-6.98907844975959E-32,0.));
#313=DIRECTION('ref_axis',(0.,1.,0.));
#314=DIRECTION('center_axis',(1.,-6.98907844975959E-32,0.));
#315=DIRECTION('ref_axis',(0.,1.,0.));
#316=DIRECTION('center_axis',(1.,-6.98907844975959E-32,0.));
#317=DIRECTION('ref_axis',(0.,1.,0.));
#318=DIRECTION('',(-1.,6.98907844975959E-32,0.));
#319=DIRECTION('center_axis',(-1.,6.98907844975959E-32,0.));
#320=DIRECTION('ref_axis',(0.,1.,0.));
#321=DIRECTION('',(-0.707106781186548,-0.707106781186547,-8.65956056235493E-17));
#322=CARTESIAN_POINT('',(0.,0.,0.));
#323=CARTESIAN_POINT('Origin',(11.693275,-5.70304724537953E-31,0.));
#324=CARTESIAN_POINT('',(12.,2.38654999999999,-2.92258429371478E-16));
#325=CARTESIAN_POINT('Origin',(12.,-5.91741975412978E-31,0.));
#326=CARTESIAN_POINT('',(11.38655,2.99999999999999,3.67381906146712E-16));
#327=CARTESIAN_POINT('',(11.693275,2.69327499999999,3.29831060797358E-16));
#328=CARTESIAN_POINT('',(11.38655,-2.99999999999999,-3.67394039744205E-16));
#329=CARTESIAN_POINT('Origin',(11.38655,-5.48867473662928E-31,0.));
#330=CARTESIAN_POINT('Origin',(11.38655,-5.48867473662928E-31,0.));
#331=CARTESIAN_POINT('Origin',(9.49999999999999,-4.17015014168988E-31,0.));
#332=CARTESIAN_POINT('',(3.71999999999999,-2.99999999999999,-3.67394039744205E-16));
#333=CARTESIAN_POINT('',(9.49999999999999,-2.99999999999999,-3.67394039744205E-16));
#334=CARTESIAN_POINT('Origin',(3.71999999999999,-1.30462797728837E-32,0.));
#335=CARTESIAN_POINT('Origin',(12.,1.5,0.));
#336=CARTESIAN_POINT('Origin',(-4.18624869532999E-31,-2.,-1.15470053837925));
#337=CARTESIAN_POINT('',(2.2,-2.,-1.15470053837925));
#338=CARTESIAN_POINT('',(2.37863279495408,-2.,-2.5127875463765E-16));
#339=CARTESIAN_POINT('Ctrl Pts',(2.2,-2.,-1.15470053837925));
#340=CARTESIAN_POINT('Ctrl Pts',(2.37863279495408,-2.,-0.535898384862247));
#341=CARTESIAN_POINT('Ctrl Pts',(2.37863279495408,-2.,-2.57628149445829E-16));
#342=CARTESIAN_POINT('',(-4.18624869532999E-31,-2.,-1.15470053837925));
#343=CARTESIAN_POINT('',(1.1,-2.,-1.15470053837925));
#344=CARTESIAN_POINT('',(-4.18624869532999E-31,-2.,1.15470053837925));
#345=CARTESIAN_POINT('',(-4.18624869532999E-31,-2.,-0.522104338030173));
#346=CARTESIAN_POINT('',(2.2,-2.,1.15470053837925));
#347=CARTESIAN_POINT('',(1.1,-2.,1.15470053837925));
#348=CARTESIAN_POINT('Ctrl Pts',(2.37863279495408,-2.,-2.57628149445829E-16));
#349=CARTESIAN_POINT('Ctrl Pts',(2.37863279495408,-2.,0.535898384862247));
#350=CARTESIAN_POINT('Ctrl Pts',(2.2,-2.,1.15470053837925));
#351=CARTESIAN_POINT('Origin',(-2.78843300537807E-31,-2.8281072321227E-16,
-2.3094010767585));
#352=CARTESIAN_POINT('',(2.2,-5.00889488502934E-48,-2.3094010767585));
#353=CARTESIAN_POINT('Ctrl Pts',(2.2,1.52655665885959E-15,-2.3094010767585));
#354=CARTESIAN_POINT('Ctrl Pts',(2.53333333333334,-1.,-1.73205080756888));
#355=CARTESIAN_POINT('Ctrl Pts',(2.2,-2.,-1.15470053837925));
#356=CARTESIAN_POINT('',(-2.78843300537807E-31,-2.8281072321227E-16,-2.3094010767585));
#357=CARTESIAN_POINT('',(1.1,-5.55111512312578E-16,-2.3094010767585));
#358=CARTESIAN_POINT('',(-3.12564747305232E-31,-0.482487741550317,-2.03083664929373));
#359=CARTESIAN_POINT('Origin',(-1.39061731542615E-31,2.,-1.15470053837925));
#360=CARTESIAN_POINT('',(2.2,2.,-1.15470053837925));
#361=CARTESIAN_POINT('Ctrl Pts',(2.2,2.,-1.15470053837925));
#362=CARTESIAN_POINT('Ctrl Pts',(2.53333333333334,1.,-1.73205080756888));
#363=CARTESIAN_POINT('Ctrl Pts',(2.2,-1.80411241501588E-15,-2.3094010767585));
#364=CARTESIAN_POINT('',(-1.39061731542615E-31,2.,-1.15470053837925));
#365=CARTESIAN_POINT('',(1.1,2.,-1.15470053837925));
#366=CARTESIAN_POINT('',(-1.69439297069235E-31,1.56535663828949,-1.4056420002643));
#367=CARTESIAN_POINT('Origin',(-1.39061731542615E-31,2.,1.15470053837925));
#368=CARTESIAN_POINT('',(2.2,2.,1.15470053837925));
#369=CARTESIAN_POINT('Ctrl Pts',(2.2,2.,1.15470053837925));
#370=CARTESIAN_POINT('Ctrl Pts',(2.53333333333334,2.,-1.2490009027033E-15));
#371=CARTESIAN_POINT('Ctrl Pts',(2.2,2.,-1.15470053837925));
#372=CARTESIAN_POINT('',(-1.39061731542615E-31,2.,1.15470053837925));
#373=CARTESIAN_POINT('',(1.1,2.,1.15470053837925));
#374=CARTESIAN_POINT('',(-1.39061731542615E-31,2.,0.632596200349076));
#375=CARTESIAN_POINT('Origin',(-4.18624869532999E-31,-2.,1.15470053837925));
#376=CARTESIAN_POINT('',(2.2,-1.38777878078145E-16,2.3094010767585));
#377=CARTESIAN_POINT('Ctrl Pts',(2.2,-2.,1.15470053837925));
#378=CARTESIAN_POINT('Ctrl Pts',(2.53333333333334,-1.,1.73205080756888));
#379=CARTESIAN_POINT('Ctrl Pts',(2.2,1.2490009027033E-15,2.3094010767585));
#380=CARTESIAN_POINT('',(-2.78843300537807E-31,0.,2.3094010767585));
#381=CARTESIAN_POINT('',(-3.79111650562023E-31,-1.4346433617105,1.48110934568383));
#382=CARTESIAN_POINT('',(1.1,4.16333634234434E-16,2.3094010767585));
#383=CARTESIAN_POINT('Origin',(-2.78843300537807E-31,0.,2.3094010767585));
#384=CARTESIAN_POINT('Ctrl Pts',(2.2,4.16333634234434E-16,2.3094010767585));
#385=CARTESIAN_POINT('Ctrl Pts',(2.53333333333334,1.,1.73205080756888));
#386=CARTESIAN_POINT('Ctrl Pts',(2.2,2.,1.15470053837925));
#387=CARTESIAN_POINT('',(-2.42673962807636E-31,0.517512258449684,2.01061523503365));
#388=CARTESIAN_POINT('Origin',(2.86666666666667,4.65938563317307E-32,0.));
#389=CARTESIAN_POINT('',(3.53333333333334,0.,0.));
#390=CARTESIAN_POINT('',(2.86666666666667,-1.15470053837925,-1.41410031829988E-16));
#391=CARTESIAN_POINT('Origin',(0.,3.98970053837926,0.));
#392=CARTESIAN_POINT('',(0.,-5.67000000000001,-6.94374735116551E-16));
#393=CARTESIAN_POINT('Origin',(0.,2.46947438558173E-31,0.));
#394=CARTESIAN_POINT('Origin',(0.524999999999989,2.10254776696936E-31,0.));
#395=CARTESIAN_POINT('',(1.04999999999998,-5.67000000000001,-6.94374735116551E-16));
#396=CARTESIAN_POINT('Origin',(1.04999999999998,1.73562114835698E-31,0.));
#397=CARTESIAN_POINT('',(0.524999999999989,-5.67000000000001,-6.94374735116551E-16));
#398=CARTESIAN_POINT('Origin',(2.38499999999998,8.02579175314074E-32,0.));
#399=CARTESIAN_POINT('',(2.38499999999998,-4.33500000000001,-5.30884387430378E-16));
#400=UNCERTAINTY_MEASURE_WITH_UNIT(LENGTH_MEASURE(0.01),#404,
'DISTANCE_ACCURACY_VALUE',
'Maximum model space distance between geometric entities at asserted c
onnectivities');
#401=UNCERTAINTY_MEASURE_WITH_UNIT(LENGTH_MEASURE(0.01),#404,
'DISTANCE_ACCURACY_VALUE',
'Maximum model space distance between geometric entities at asserted c
onnectivities');
#402=(
GEOMETRIC_REPRESENTATION_CONTEXT(3)
GLOBAL_UNCERTAINTY_ASSIGNED_CONTEXT((#400))
GLOBAL_UNIT_ASSIGNED_CONTEXT((#404,#406,#407))
REPRESENTATION_CONTEXT('','3D')
);
#403=(
GEOMETRIC_REPRESENTATION_CONTEXT(3)
GLOBAL_UNCERTAINTY_ASSIGNED_CONTEXT((#401))
GLOBAL_UNIT_ASSIGNED_CONTEXT((#404,#406,#407))
REPRESENTATION_CONTEXT('','3D')
);
#404=(
LENGTH_UNIT()
NAMED_UNIT(*)
SI_UNIT(.MILLI.,.METRE.)
);
#405=(
LENGTH_UNIT()
NAMED_UNIT(*)
SI_UNIT(.CENTI.,.METRE.)
);
#406=(
NAMED_UNIT(*)
PLANE_ANGLE_UNIT()
SI_UNIT($,.RADIAN.)
);
#407=(
NAMED_UNIT(*)
SI_UNIT($,.STERADIAN.)
SOLID_ANGLE_UNIT()
);
#408=SHAPE_DEFINITION_REPRESENTATION(#409,#410);
#409=PRODUCT_DEFINITION_SHAPE('',$,#412);
#410=SHAPE_REPRESENTATION('',(#245),#402);
#411=PRODUCT_DEFINITION_CONTEXT('part definition',#416,'design');
#412=PRODUCT_DEFINITION('leer','00004570',#413,#411);
#413=PRODUCT_DEFINITION_FORMATION('',$,#418);
#414=PRODUCT_RELATED_PRODUCT_CATEGORY('00004570','00004570',(#418));
#415=APPLICATION_PROTOCOL_DEFINITION('international standard',
'automotive_design',2009,#416);
#416=APPLICATION_CONTEXT(
'Core Data for Automotive Mechanical Design Process');
#417=PRODUCT_CONTEXT('part definition',#416,'mechanical');
#418=PRODUCT('leer','00004570','Senkkopfschraube ISO 10642 - M6 x 12',(#417));
#419=PRESENTATION_STYLE_ASSIGNMENT((#420));
#420=SURFACE_STYLE_USAGE(.BOTH.,#423);
#421=SURFACE_STYLE_RENDERING_WITH_PROPERTIES($,#427,(#422));
#422=SURFACE_STYLE_TRANSPARENT(0.);
#423=SURFACE_SIDE_STYLE('',(#424,#421));
#424=SURFACE_STYLE_FILL_AREA(#425);
#425=FILL_AREA_STYLE('',(#426));
#426=FILL_AREA_STYLE_COLOUR('',#427);
#427=COLOUR_RGB('',0.83921568627451,0.886274509803922,0.854901960784314);
ENDSEC;
END-ISO-10303-21;
