ISO-10303-21;
HEADER;
/* Generated by software containing ST-Developer
 * from STEP Tools, Inc. (www.steptools.com) 
 */

FILE_DESCRIPTION(
/* description */ ('Gleitmutter 8x8 M05 verzinkt'),
/* implementation_level */ '2;1');

FILE_NAME(
/* name */ 
'\\\\crossprint\\CrossbaseMedia\\daten_aus_vault\\ZEI_CAD_211382-0-REV
00_#SALL_#AIN_#V1.step',
/* time_stamp */ '2022-09-15T21:05:07+02:00',
/* author */ ('MiniTec'),
/* organization */ ('MiniTec GmbH & Co.KG'),
/* preprocessor_version */ 'ST-DEVELOPER v18.1',
/* originating_system */ 'Autodesk Inventor 2021',
/* authorisation */ '');

FILE_SCHEMA (('CONFIG_CONTROL_DESIGN'));
ENDSEC;

DATA;
#10=MECHANICAL_DESIGN_GEOMETRIC_PRESENTATION_REPRESENTATION('',(#13),#388);
#11=SHAPE_REPRESENTATION_RELATIONSHIP('SRR','None',#395,#12);
#12=ADVANCED_BREP_SHAPE_REPRESENTATION('',(#14),#387);
#13=STYLED_ITEM('',(#404),#14);
#14=MANIFOLD_SOLID_BREP('Volumenk\X\F6rper1',#211);
#15=(
BOUNDED_CURVE()
B_SPLINE_CURVE(2,(#347,#348,#349),.UNSPECIFIED.,.F.,.F.)
B_SPLINE_CURVE_WITH_KNOTS((3,3),(0.454099606813753,0.908199213627506),
 .UNSPECIFIED.)
CURVE()
GEOMETRIC_REPRESENTATION_ITEM()
RATIONAL_B_SPLINE_CURVE((1.,1.09868411346781,1.))
REPRESENTATION_ITEM('')
);
#16=(
BOUNDED_CURVE()
B_SPLINE_CURVE(2,(#350,#351,#352),.UNSPECIFIED.,.F.,.F.)
B_SPLINE_CURVE_WITH_KNOTS((3,3),(0.,0.454099606813753),.UNSPECIFIED.)
CURVE()
GEOMETRIC_REPRESENTATION_ITEM()
RATIONAL_B_SPLINE_CURVE((1.,1.09868411346781,1.))
REPRESENTATION_ITEM('')
);
#17=(
BOUNDED_CURVE()
B_SPLINE_CURVE(2,(#355,#356,#357),.UNSPECIFIED.,.F.,.F.)
B_SPLINE_CURVE_WITH_KNOTS((3,3),(0.,0.454099606813753),.UNSPECIFIED.)
CURVE()
GEOMETRIC_REPRESENTATION_ITEM()
RATIONAL_B_SPLINE_CURVE((1.,1.09868411346781,1.))
REPRESENTATION_ITEM('')
);
#18=(
BOUNDED_CURVE()
B_SPLINE_CURVE(2,(#358,#359,#360),.UNSPECIFIED.,.F.,.F.)
B_SPLINE_CURVE_WITH_KNOTS((3,3),(0.454099606813753,0.908199213627506),
 .UNSPECIFIED.)
CURVE()
GEOMETRIC_REPRESENTATION_ITEM()
RATIONAL_B_SPLINE_CURVE((1.,1.09868411346781,1.))
REPRESENTATION_ITEM('')
);
#19=(
BOUNDED_CURVE()
B_SPLINE_CURVE(2,(#363,#364,#365),.UNSPECIFIED.,.F.,.F.)
B_SPLINE_CURVE_WITH_KNOTS((3,3),(0.454099606813753,0.908199213627507),
 .UNSPECIFIED.)
CURVE()
GEOMETRIC_REPRESENTATION_ITEM()
RATIONAL_B_SPLINE_CURVE((1.,1.09868411346782,1.))
REPRESENTATION_ITEM('')
);
#20=(
BOUNDED_CURVE()
B_SPLINE_CURVE(2,(#366,#367,#368),.UNSPECIFIED.,.F.,.F.)
B_SPLINE_CURVE_WITH_KNOTS((3,3),(0.,0.454099606813753),.UNSPECIFIED.)
CURVE()
GEOMETRIC_REPRESENTATION_ITEM()
RATIONAL_B_SPLINE_CURVE((1.,1.0986841134678,1.))
REPRESENTATION_ITEM('')
);
#21=(
BOUNDED_CURVE()
B_SPLINE_CURVE(2,(#371,#372,#373),.UNSPECIFIED.,.F.,.F.)
B_SPLINE_CURVE_WITH_KNOTS((3,3),(0.454099606813753,0.908199213627506),
 .UNSPECIFIED.)
CURVE()
GEOMETRIC_REPRESENTATION_ITEM()
RATIONAL_B_SPLINE_CURVE((1.,1.09868411346781,1.))
REPRESENTATION_ITEM('')
);
#22=(
BOUNDED_CURVE()
B_SPLINE_CURVE(2,(#374,#375,#376),.UNSPECIFIED.,.F.,.F.)
B_SPLINE_CURVE_WITH_KNOTS((3,3),(0.,0.454099606813753),.UNSPECIFIED.)
CURVE()
GEOMETRIC_REPRESENTATION_ITEM()
RATIONAL_B_SPLINE_CURVE((1.,1.09868411346781,1.))
REPRESENTATION_ITEM('')
);
#23=FACE_BOUND('',#48,.T.);
#24=FACE_BOUND('',#51,.T.);
#25=PLANE('',#237);
#26=PLANE('',#244);
#27=PLANE('',#249);
#28=PLANE('',#250);
#29=PLANE('',#251);
#30=PLANE('',#252);
#31=CYLINDRICAL_SURFACE('',#234,2.067);
#32=FACE_OUTER_BOUND('',#45,.T.);
#33=FACE_OUTER_BOUND('',#46,.T.);
#34=FACE_OUTER_BOUND('',#47,.T.);
#35=FACE_OUTER_BOUND('',#49,.T.);
#36=FACE_OUTER_BOUND('',#50,.T.);
#37=FACE_OUTER_BOUND('',#52,.T.);
#38=FACE_OUTER_BOUND('',#53,.T.);
#39=FACE_OUTER_BOUND('',#54,.T.);
#40=FACE_OUTER_BOUND('',#55,.T.);
#41=FACE_OUTER_BOUND('',#56,.T.);
#42=FACE_OUTER_BOUND('',#57,.T.);
#43=FACE_OUTER_BOUND('',#58,.T.);
#44=FACE_OUTER_BOUND('',#59,.T.);
#45=EDGE_LOOP('',(#136,#137,#138,#139));
#46=EDGE_LOOP('',(#140,#141,#142,#143,#144));
#47=EDGE_LOOP('',(#145,#146,#147,#148));
#48=EDGE_LOOP('',(#149));
#49=EDGE_LOOP('',(#150,#151,#152,#153,#154));
#50=EDGE_LOOP('',(#155,#156,#157,#158));
#51=EDGE_LOOP('',(#159));
#52=EDGE_LOOP('',(#160,#161,#162));
#53=EDGE_LOOP('',(#163,#164,#165));
#54=EDGE_LOOP('',(#166,#167,#168));
#55=EDGE_LOOP('',(#169,#170,#171));
#56=EDGE_LOOP('',(#172,#173,#174,#175,#176));
#57=EDGE_LOOP('',(#177,#178,#179,#180,#181));
#58=EDGE_LOOP('',(#182,#183,#184,#185,#186));
#59=EDGE_LOOP('',(#187,#188,#189,#190,#191));
#60=LINE('',#315,#71);
#61=LINE('',#322,#72);
#62=LINE('',#335,#73);
#63=LINE('',#339,#74);
#64=LINE('',#341,#75);
#65=LINE('',#343,#76);
#66=LINE('',#344,#77);
#67=LINE('',#378,#78);
#68=LINE('',#379,#79);
#69=LINE('',#381,#80);
#70=LINE('',#383,#81);
#71=VECTOR('',#259,2.28350635094611);
#72=VECTOR('',#268,2.067);
#73=VECTOR('',#283,2.28350635094611);
#74=VECTOR('',#286,10.);
#75=VECTOR('',#287,10.);
#76=VECTOR('',#288,10.);
#77=VECTOR('',#289,10.);
#78=VECTOR('',#300,10.);
#79=VECTOR('',#301,10.);
#80=VECTOR('',#304,10.);
#81=VECTOR('',#307,10.);
#82=CIRCLE('',#232,2.50001270189222);
#83=CIRCLE('',#233,2.067);
#84=CIRCLE('',#235,2.067);
#85=CIRCLE('',#236,2.067);
#86=CIRCLE('',#238,4.);
#87=CIRCLE('',#239,4.);
#88=CIRCLE('',#240,4.);
#89=CIRCLE('',#241,4.);
#90=CIRCLE('',#243,2.50001270189222);
#91=VERTEX_POINT('',#312);
#92=VERTEX_POINT('',#314);
#93=VERTEX_POINT('',#318);
#94=VERTEX_POINT('',#319);
#95=VERTEX_POINT('',#324);
#96=VERTEX_POINT('',#325);
#97=VERTEX_POINT('',#327);
#98=VERTEX_POINT('',#329);
#99=VERTEX_POINT('',#333);
#100=VERTEX_POINT('',#337);
#101=VERTEX_POINT('',#338);
#102=VERTEX_POINT('',#340);
#103=VERTEX_POINT('',#342);
#104=VERTEX_POINT('',#346);
#105=VERTEX_POINT('',#354);
#106=VERTEX_POINT('',#362);
#107=VERTEX_POINT('',#370);
#108=EDGE_CURVE('',#91,#91,#82,.T.);
#109=EDGE_CURVE('',#91,#92,#60,.T.);
#110=EDGE_CURVE('',#92,#92,#83,.T.);
#111=EDGE_CURVE('',#93,#94,#84,.T.);
#112=EDGE_CURVE('',#94,#93,#85,.T.);
#113=EDGE_CURVE('',#94,#92,#61,.T.);
#114=EDGE_CURVE('',#95,#96,#86,.T.);
#115=EDGE_CURVE('',#96,#97,#87,.T.);
#116=EDGE_CURVE('',#97,#98,#88,.T.);
#117=EDGE_CURVE('',#98,#95,#89,.T.);
#118=EDGE_CURVE('',#99,#99,#90,.T.);
#119=EDGE_CURVE('',#99,#93,#62,.T.);
#120=EDGE_CURVE('',#100,#101,#63,.T.);
#121=EDGE_CURVE('',#101,#102,#64,.T.);
#122=EDGE_CURVE('',#102,#103,#65,.T.);
#123=EDGE_CURVE('',#103,#100,#66,.T.);
#124=EDGE_CURVE('',#96,#104,#15,.T.);
#125=EDGE_CURVE('',#104,#95,#16,.T.);
#126=EDGE_CURVE('',#105,#98,#17,.T.);
#127=EDGE_CURVE('',#95,#105,#18,.T.);
#128=EDGE_CURVE('',#97,#106,#19,.T.);
#129=EDGE_CURVE('',#106,#96,#20,.T.);
#130=EDGE_CURVE('',#98,#107,#21,.T.);
#131=EDGE_CURVE('',#107,#97,#22,.T.);
#132=EDGE_CURVE('',#100,#106,#67,.T.);
#133=EDGE_CURVE('',#103,#107,#68,.T.);
#134=EDGE_CURVE('',#101,#104,#69,.T.);
#135=EDGE_CURVE('',#102,#105,#70,.T.);
#136=ORIENTED_EDGE('',*,*,#108,.T.);
#137=ORIENTED_EDGE('',*,*,#109,.T.);
#138=ORIENTED_EDGE('',*,*,#110,.T.);
#139=ORIENTED_EDGE('',*,*,#109,.F.);
#140=ORIENTED_EDGE('',*,*,#111,.F.);
#141=ORIENTED_EDGE('',*,*,#112,.F.);
#142=ORIENTED_EDGE('',*,*,#113,.T.);
#143=ORIENTED_EDGE('',*,*,#110,.F.);
#144=ORIENTED_EDGE('',*,*,#113,.F.);
#145=ORIENTED_EDGE('',*,*,#114,.T.);
#146=ORIENTED_EDGE('',*,*,#115,.T.);
#147=ORIENTED_EDGE('',*,*,#116,.T.);
#148=ORIENTED_EDGE('',*,*,#117,.T.);
#149=ORIENTED_EDGE('',*,*,#108,.F.);
#150=ORIENTED_EDGE('',*,*,#118,.T.);
#151=ORIENTED_EDGE('',*,*,#119,.T.);
#152=ORIENTED_EDGE('',*,*,#111,.T.);
#153=ORIENTED_EDGE('',*,*,#112,.T.);
#154=ORIENTED_EDGE('',*,*,#119,.F.);
#155=ORIENTED_EDGE('',*,*,#120,.T.);
#156=ORIENTED_EDGE('',*,*,#121,.T.);
#157=ORIENTED_EDGE('',*,*,#122,.T.);
#158=ORIENTED_EDGE('',*,*,#123,.T.);
#159=ORIENTED_EDGE('',*,*,#118,.F.);
#160=ORIENTED_EDGE('',*,*,#124,.F.);
#161=ORIENTED_EDGE('',*,*,#114,.F.);
#162=ORIENTED_EDGE('',*,*,#125,.F.);
#163=ORIENTED_EDGE('',*,*,#126,.F.);
#164=ORIENTED_EDGE('',*,*,#127,.F.);
#165=ORIENTED_EDGE('',*,*,#117,.F.);
#166=ORIENTED_EDGE('',*,*,#128,.F.);
#167=ORIENTED_EDGE('',*,*,#115,.F.);
#168=ORIENTED_EDGE('',*,*,#129,.F.);
#169=ORIENTED_EDGE('',*,*,#130,.F.);
#170=ORIENTED_EDGE('',*,*,#116,.F.);
#171=ORIENTED_EDGE('',*,*,#131,.F.);
#172=ORIENTED_EDGE('',*,*,#131,.T.);
#173=ORIENTED_EDGE('',*,*,#128,.T.);
#174=ORIENTED_EDGE('',*,*,#132,.F.);
#175=ORIENTED_EDGE('',*,*,#123,.F.);
#176=ORIENTED_EDGE('',*,*,#133,.T.);
#177=ORIENTED_EDGE('',*,*,#129,.T.);
#178=ORIENTED_EDGE('',*,*,#124,.T.);
#179=ORIENTED_EDGE('',*,*,#134,.F.);
#180=ORIENTED_EDGE('',*,*,#120,.F.);
#181=ORIENTED_EDGE('',*,*,#132,.T.);
#182=ORIENTED_EDGE('',*,*,#127,.T.);
#183=ORIENTED_EDGE('',*,*,#135,.F.);
#184=ORIENTED_EDGE('',*,*,#121,.F.);
#185=ORIENTED_EDGE('',*,*,#134,.T.);
#186=ORIENTED_EDGE('',*,*,#125,.T.);
#187=ORIENTED_EDGE('',*,*,#130,.T.);
#188=ORIENTED_EDGE('',*,*,#133,.F.);
#189=ORIENTED_EDGE('',*,*,#122,.F.);
#190=ORIENTED_EDGE('',*,*,#135,.T.);
#191=ORIENTED_EDGE('',*,*,#126,.T.);
#192=CONICAL_SURFACE('',#231,2.28350635094611,1.0471975511966);
#193=CONICAL_SURFACE('',#242,2.28350635094611,1.0471975511966);
#194=CONICAL_SURFACE('',#245,4.82842712474619,0.691835813643225);
#195=CONICAL_SURFACE('',#246,4.82842712474619,0.691835813643225);
#196=CONICAL_SURFACE('',#247,4.82842712474619,0.691835813643225);
#197=CONICAL_SURFACE('',#248,4.82842712474619,0.691835813643225);
#198=ADVANCED_FACE('',(#32),#192,.F.);
#199=ADVANCED_FACE('',(#33),#31,.F.);
#200=ADVANCED_FACE('',(#34,#23),#25,.T.);
#201=ADVANCED_FACE('',(#35),#193,.F.);
#202=ADVANCED_FACE('',(#36,#24),#26,.F.);
#203=ADVANCED_FACE('',(#37),#194,.T.);
#204=ADVANCED_FACE('',(#38),#195,.T.);
#205=ADVANCED_FACE('',(#39),#196,.T.);
#206=ADVANCED_FACE('',(#40),#197,.T.);
#207=ADVANCED_FACE('',(#41),#27,.T.);
#208=ADVANCED_FACE('',(#42),#28,.T.);
#209=ADVANCED_FACE('',(#43),#29,.T.);
#210=ADVANCED_FACE('',(#44),#30,.T.);
#211=CLOSED_SHELL('',(#198,#199,#200,#201,#202,#203,#204,#205,#206,#207,
#208,#209,#210));
#212=DERIVED_UNIT_ELEMENT(#214,1.);
#213=DERIVED_UNIT_ELEMENT(#390,-3.);
#214=(
MASS_UNIT()
NAMED_UNIT(*)
SI_UNIT($,.GRAM.)
);
#215=DERIVED_UNIT((#212,#213));
#216=MEASURE_REPRESENTATION_ITEM('density measure',
POSITIVE_RATIO_MEASURE(7.85),#215);
#217=PROPERTY_DEFINITION_REPRESENTATION(#222,#219);
#218=PROPERTY_DEFINITION_REPRESENTATION(#223,#220);
#219=REPRESENTATION('material name',(#221),#387);
#220=REPRESENTATION('density',(#216),#387);
#221=DESCRIPTIVE_REPRESENTATION_ITEM('Stahl','Stahl');
#222=PROPERTY_DEFINITION('material property','material name',#397);
#223=PROPERTY_DEFINITION('material property','density of part',#397);
#224=DATE_TIME_ROLE('creation_date');
#225=CC_DESIGN_DATE_AND_TIME_ASSIGNMENT(#226,#224,(#397));
#226=DATE_AND_TIME(#227,#228);
#227=CALENDAR_DATE(2009,16,12);
#228=LOCAL_TIME(0,0,0.,#229);
#229=COORDINATED_UNIVERSAL_TIME_OFFSET(0,0,.BEHIND.);
#230=AXIS2_PLACEMENT_3D('placement',#310,#253,#254);
#231=AXIS2_PLACEMENT_3D('',#311,#255,#256);
#232=AXIS2_PLACEMENT_3D('',#313,#257,#258);
#233=AXIS2_PLACEMENT_3D('',#316,#260,#261);
#234=AXIS2_PLACEMENT_3D('',#317,#262,#263);
#235=AXIS2_PLACEMENT_3D('',#320,#264,#265);
#236=AXIS2_PLACEMENT_3D('',#321,#266,#267);
#237=AXIS2_PLACEMENT_3D('',#323,#269,#270);
#238=AXIS2_PLACEMENT_3D('',#326,#271,#272);
#239=AXIS2_PLACEMENT_3D('',#328,#273,#274);
#240=AXIS2_PLACEMENT_3D('',#330,#275,#276);
#241=AXIS2_PLACEMENT_3D('',#331,#277,#278);
#242=AXIS2_PLACEMENT_3D('',#332,#279,#280);
#243=AXIS2_PLACEMENT_3D('',#334,#281,#282);
#244=AXIS2_PLACEMENT_3D('',#336,#284,#285);
#245=AXIS2_PLACEMENT_3D('',#345,#290,#291);
#246=AXIS2_PLACEMENT_3D('',#353,#292,#293);
#247=AXIS2_PLACEMENT_3D('',#361,#294,#295);
#248=AXIS2_PLACEMENT_3D('',#369,#296,#297);
#249=AXIS2_PLACEMENT_3D('',#377,#298,#299);
#250=AXIS2_PLACEMENT_3D('',#380,#302,#303);
#251=AXIS2_PLACEMENT_3D('',#382,#305,#306);
#252=AXIS2_PLACEMENT_3D('',#384,#308,#309);
#253=DIRECTION('axis',(0.,0.,1.));
#254=DIRECTION('refdir',(1.,0.,0.));
#255=DIRECTION('center_axis',(1.,0.,0.));
#256=DIRECTION('ref_axis',(0.,0.,1.));
#257=DIRECTION('center_axis',(1.,0.,0.));
#258=DIRECTION('ref_axis',(0.,0.,1.));
#259=DIRECTION('',(-0.5,-1.06057523872491E-16,0.866025403784439));
#260=DIRECTION('center_axis',(-1.,0.,0.));
#261=DIRECTION('ref_axis',(0.,0.,1.));
#262=DIRECTION('center_axis',(-1.,0.,0.));
#263=DIRECTION('ref_axis',(0.,0.,1.));
#264=DIRECTION('center_axis',(1.,0.,0.));
#265=DIRECTION('ref_axis',(0.,0.,-1.));
#266=DIRECTION('center_axis',(1.,0.,0.));
#267=DIRECTION('ref_axis',(0.,0.,-1.));
#268=DIRECTION('',(1.,0.,0.));
#269=DIRECTION('center_axis',(1.,0.,0.));
#270=DIRECTION('ref_axis',(0.,0.,-1.));
#271=DIRECTION('center_axis',(1.,0.,0.));
#272=DIRECTION('ref_axis',(9.81307786677359E-17,1.,0.));
#273=DIRECTION('center_axis',(1.,0.,0.));
#274=DIRECTION('ref_axis',(9.81307786677359E-17,1.,0.));
#275=DIRECTION('center_axis',(1.,0.,0.));
#276=DIRECTION('ref_axis',(9.81307786677359E-17,1.,0.));
#277=DIRECTION('center_axis',(1.,0.,0.));
#278=DIRECTION('ref_axis',(9.81307786677359E-17,1.,0.));
#279=DIRECTION('center_axis',(-1.,0.,0.));
#280=DIRECTION('ref_axis',(0.,0.,-1.));
#281=DIRECTION('center_axis',(-1.,0.,0.));
#282=DIRECTION('ref_axis',(0.,0.,-1.));
#283=DIRECTION('',(0.499999999999999,-1.06057523872491E-16,-0.86602540378444));
#284=DIRECTION('center_axis',(1.,0.,0.));
#285=DIRECTION('ref_axis',(0.,0.,-1.));
#286=DIRECTION('',(0.,-0.707106781186548,0.707106781186547));
#287=DIRECTION('',(0.,0.707106781186547,0.707106781186548));
#288=DIRECTION('',(0.,0.707106781186548,-0.707106781186547));
#289=DIRECTION('',(0.,-0.707106781186548,-0.707106781186548));
#290=DIRECTION('center_axis',(-1.,0.,0.));
#291=DIRECTION('ref_axis',(9.81307786677359E-17,-1.,-1.01064309961486E-15));
#292=DIRECTION('center_axis',(-1.,0.,0.));
#293=DIRECTION('ref_axis',(9.81307786677359E-17,1.,0.));
#294=DIRECTION('center_axis',(-1.,0.,0.));
#295=DIRECTION('ref_axis',(9.81307786677359E-17,1.,0.));
#296=DIRECTION('center_axis',(-1.,0.,0.));
#297=DIRECTION('ref_axis',(9.81307786677359E-17,1.,0.));
#298=DIRECTION('center_axis',(0.,0.707106781186548,-0.707106781186548));
#299=DIRECTION('ref_axis',(-1.,0.,0.));
#300=DIRECTION('',(1.,0.,0.));
#301=DIRECTION('',(1.,0.,0.));
#302=DIRECTION('center_axis',(0.,-0.707106781186547,-0.707106781186548));
#303=DIRECTION('ref_axis',(-1.,0.,0.));
#304=DIRECTION('',(1.,0.,0.));
#305=DIRECTION('center_axis',(0.,-0.707106781186548,0.707106781186547));
#306=DIRECTION('ref_axis',(1.,0.,0.));
#307=DIRECTION('',(1.,0.,0.));
#308=DIRECTION('center_axis',(0.,0.707106781186547,0.707106781186548));
#309=DIRECTION('ref_axis',(1.,0.,0.));
#310=CARTESIAN_POINT('',(0.,0.,0.));
#311=CARTESIAN_POINT('Origin',(3.875,0.,0.));
#312=CARTESIAN_POINT('',(4.,3.06153143937386E-16,-2.50001270189222));
#313=CARTESIAN_POINT('Origin',(4.,0.,0.));
#314=CARTESIAN_POINT('',(3.75,-2.53126133335085E-16,-2.067));
#315=CARTESIAN_POINT('',(3.875,2.79648874351881E-16,-2.28350635094611));
#316=CARTESIAN_POINT('Origin',(3.75,0.,0.));
#317=CARTESIAN_POINT('Origin',(16.4924225024706,0.,0.));
#318=CARTESIAN_POINT('',(0.249999999999999,-2.53126133335085E-16,2.067));
#319=CARTESIAN_POINT('',(0.249999999999999,-2.53134493383758E-16,-2.067));
#320=CARTESIAN_POINT('Origin',(0.249999999999999,0.,0.));
#321=CARTESIAN_POINT('Origin',(0.249999999999999,0.,0.));
#322=CARTESIAN_POINT('',(16.4924225024706,-2.53134493383758E-16,-2.067));
#323=CARTESIAN_POINT('Origin',(4.,2.77555756156289E-16,1.52655665885959E-15));
#324=CARTESIAN_POINT('',(4.,-2.82842712474619,2.82842712474619));
#325=CARTESIAN_POINT('',(4.,-2.82842712474619,-2.82842712474619));
#326=CARTESIAN_POINT('Origin',(4.,0.,0.));
#327=CARTESIAN_POINT('',(4.,2.82842712474619,-2.82842712474619));
#328=CARTESIAN_POINT('Origin',(4.,0.,0.));
#329=CARTESIAN_POINT('',(4.,2.82842712474619,2.82842712474619));
#330=CARTESIAN_POINT('Origin',(4.,0.,0.));
#331=CARTESIAN_POINT('Origin',(4.,0.,0.));
#332=CARTESIAN_POINT('Origin',(0.125,0.,0.));
#333=CARTESIAN_POINT('',(0.,3.06153143937386E-16,2.50001270189222));
#334=CARTESIAN_POINT('Origin',(0.,0.,0.));
#335=CARTESIAN_POINT('',(0.125,2.79648874351881E-16,2.28350635094611));
#336=CARTESIAN_POINT('Origin',(0.,2.77555756156289E-16,1.52655665885959E-15));
#337=CARTESIAN_POINT('',(0.,0.,-5.65685424949238));
#338=CARTESIAN_POINT('',(0.,-5.65685424949238,-3.43213055054791E-16));
#339=CARTESIAN_POINT('',(0.,0.,-5.65685424949238));
#340=CARTESIAN_POINT('',(0.,-1.38232600354111E-15,5.65685424949238));
#341=CARTESIAN_POINT('',(0.,-5.65685424949238,-3.43213055054791E-16));
#342=CARTESIAN_POINT('',(0.,5.65685424949238,2.42143895202744E-15));
#343=CARTESIAN_POINT('',(0.,-1.38232600354111E-15,5.65685424949238));
#344=CARTESIAN_POINT('',(0.,5.65685424949238,2.42143895202744E-15));
#345=CARTESIAN_POINT('Origin',(3.,0.,0.));
#346=CARTESIAN_POINT('',(2.,-5.65685424949238,0.));
#347=CARTESIAN_POINT('Ctrl Pts',(4.,-2.82842712474619,-2.82842712474619));
#348=CARTESIAN_POINT('Ctrl Pts',(4.,-4.,-1.65685424949238));
#349=CARTESIAN_POINT('Ctrl Pts',(2.,-5.65685424949238,-3.25176795283269E-16));
#350=CARTESIAN_POINT('Ctrl Pts',(2.,-5.65685424949238,0.));
#351=CARTESIAN_POINT('Ctrl Pts',(4.,-4.,1.65685424949238));
#352=CARTESIAN_POINT('Ctrl Pts',(4.,-2.82842712474619,2.82842712474619));
#353=CARTESIAN_POINT('Origin',(3.,0.,0.));
#354=CARTESIAN_POINT('',(2.,-3.33066907387547E-15,5.65685424949238));
#355=CARTESIAN_POINT('Ctrl Pts',(2.,3.25176795283269E-16,5.65685424949238));
#356=CARTESIAN_POINT('Ctrl Pts',(4.,1.65685424949238,4.));
#357=CARTESIAN_POINT('Ctrl Pts',(4.,2.82842712474619,2.82842712474619));
#358=CARTESIAN_POINT('Ctrl Pts',(4.,-2.82842712474619,2.82842712474619));
#359=CARTESIAN_POINT('Ctrl Pts',(4.,-1.65685424949238,4.));
#360=CARTESIAN_POINT('Ctrl Pts',(2.,-4.2272983386825E-15,5.65685424949238));
#361=CARTESIAN_POINT('Origin',(3.,0.,0.));
#362=CARTESIAN_POINT('',(2.,-2.22044604925031E-15,-5.65685424949238));
#363=CARTESIAN_POINT('Ctrl Pts',(4.,2.82842712474619,-2.82842712474619));
#364=CARTESIAN_POINT('Ctrl Pts',(4.,1.65685424949238,-4.));
#365=CARTESIAN_POINT('Ctrl Pts',(2.,-2.27623756698288E-15,-5.65685424949238));
#366=CARTESIAN_POINT('Ctrl Pts',(2.,2.60141436226615E-15,-5.65685424949238));
#367=CARTESIAN_POINT('Ctrl Pts',(4.,-1.65685424949238,-4.));
#368=CARTESIAN_POINT('Ctrl Pts',(4.,-2.82842712474619,-2.82842712474619));
#369=CARTESIAN_POINT('Origin',(3.,0.,0.));
#370=CARTESIAN_POINT('',(2.,5.65685424949238,0.));
#371=CARTESIAN_POINT('Ctrl Pts',(4.,2.82842712474619,2.82842712474619));
#372=CARTESIAN_POINT('Ctrl Pts',(4.,4.,1.65685424949238));
#373=CARTESIAN_POINT('Ctrl Pts',(2.,5.65685424949238,3.25176795283269E-15));
#374=CARTESIAN_POINT('Ctrl Pts',(2.,5.65685424949238,1.62588397641635E-15));
#375=CARTESIAN_POINT('Ctrl Pts',(4.,4.,-1.65685424949238));
#376=CARTESIAN_POINT('Ctrl Pts',(4.,2.82842712474619,-2.82842712474619));
#377=CARTESIAN_POINT('Origin',(0.,5.65685424949238,2.42143895202744E-15));
#378=CARTESIAN_POINT('',(0.,0.,-5.65685424949238));
#379=CARTESIAN_POINT('',(0.,5.65685424949238,2.42143895202744E-15));
#380=CARTESIAN_POINT('Origin',(0.,0.,-5.65685424949238));
#381=CARTESIAN_POINT('',(0.,-5.65685424949238,-3.43213055054791E-16));
#382=CARTESIAN_POINT('Origin',(0.,-5.65685424949238,-3.43213055054791E-16));
#383=CARTESIAN_POINT('',(0.,-1.38232600354111E-15,5.65685424949238));
#384=CARTESIAN_POINT('Origin',(0.,-1.38232600354111E-15,5.65685424949238));
#385=UNCERTAINTY_MEASURE_WITH_UNIT(LENGTH_MEASURE(0.01),#389,
'DISTANCE_ACCURACY_VALUE',
'Maximum model space distance between geometric entities at asserted c
onnectivities');
#386=UNCERTAINTY_MEASURE_WITH_UNIT(LENGTH_MEASURE(0.01),#389,
'DISTANCE_ACCURACY_VALUE',
'Maximum model space distance between geometric entities at asserted c
onnectivities');
#387=(
GEOMETRIC_REPRESENTATION_CONTEXT(3)
GLOBAL_UNCERTAINTY_ASSIGNED_CONTEXT((#385))
GLOBAL_UNIT_ASSIGNED_CONTEXT((#389,#391,#392))
REPRESENTATION_CONTEXT('','3D')
);
#388=(
GEOMETRIC_REPRESENTATION_CONTEXT(3)
GLOBAL_UNCERTAINTY_ASSIGNED_CONTEXT((#386))
GLOBAL_UNIT_ASSIGNED_CONTEXT((#389,#391,#392))
REPRESENTATION_CONTEXT('','3D')
);
#389=(
LENGTH_UNIT()
NAMED_UNIT(*)
SI_UNIT(.MILLI.,.METRE.)
);
#390=(
LENGTH_UNIT()
NAMED_UNIT(*)
SI_UNIT(.CENTI.,.METRE.)
);
#391=(
NAMED_UNIT(*)
PLANE_ANGLE_UNIT()
SI_UNIT($,.RADIAN.)
);
#392=(
NAMED_UNIT(*)
SI_UNIT($,.STERADIAN.)
SOLID_ANGLE_UNIT()
);
#393=SHAPE_DEFINITION_REPRESENTATION(#394,#395);
#394=PRODUCT_DEFINITION_SHAPE('',$,#397);
#395=SHAPE_REPRESENTATION('',(#230),#387);
#396=DESIGN_CONTEXT('part definition',#401,'design');
#397=PRODUCT_DEFINITION('leer','00023090',#398,#396);
#398=PRODUCT_DEFINITION_FORMATION('00',$,#403);
#399=PRODUCT_RELATED_PRODUCT_CATEGORY('00023090','00023090',(#403));
#400=APPLICATION_PROTOCOL_DEFINITION('international standard',
'ap203_configuration_controlled_3d_design_of_mechanical_parts_and_asse
mblies_mim_lf',2004,#401);
#401=APPLICATION_CONTEXT(
'Configuration Controlled 3D Design of Mechanical Parts and Assemblies');
#402=MECHANICAL_CONTEXT('part definition',#401,'mechanical');
#403=PRODUCT('leer','00023090','Gleitmutter 8x8 M05 verzinkt',(#402));
#404=PRESENTATION_STYLE_ASSIGNMENT((#405));
#405=SURFACE_STYLE_USAGE(.BOTH.,#408);
#406=SURFACE_STYLE_RENDERING_WITH_PROPERTIES($,#412,(#407));
#407=SURFACE_STYLE_TRANSPARENT(0.);
#408=SURFACE_SIDE_STYLE('',(#409,#406));
#409=SURFACE_STYLE_FILL_AREA(#410);
#410=FILL_AREA_STYLE('',(#411));
#411=FILL_AREA_STYLE_COLOUR('',#412);
#412=COLOUR_RGB('',0.83921568627451,0.886274509803922,0.854901960784314);
ENDSEC;
END-ISO-10303-21;
