ISO-10303-21;
HEADER;
/* Generated by software containing ST-Developer
 * from STEP Tools, Inc. (www.steptools.com) 
 */

FILE_DESCRIPTION(
/* description */ ('korrosionsbest\X\E4ndig'),
/* implementation_level */ '2;1');

FILE_NAME(
/* name */ '\\\\fileserver\\Daten2\\STEP Daten fuer PIM\\211360-1.step',

/* time_stamp */ '2021-08-27T12:04:59+02:00',
/* author */ ('Andy Moles'),
/* organization */ (''),
/* preprocessor_version */ 'ST-DEVELOPER v18.1',
/* originating_system */ 'Autodesk Inventor 2021',
/* authorisation */ '');

FILE_SCHEMA (('AUTOMOTIVE_DESIGN { 1 0 10303 214 3 1 1 }'));
ENDSEC;

DATA;
#10=MECHANICAL_DESIGN_GEOMETRIC_PRESENTATION_REPRESENTATION('',(#13),#228);
#11=SHAPE_REPRESENTATION_RELATIONSHIP('SRR','None',#235,#12);
#12=ADVANCED_BREP_SHAPE_REPRESENTATION('',(#14),#227);
#13=STYLED_ITEM('',(#244),#14);
#14=MANIFOLD_SOLID_BREP('Volumenk\X\F6rper1',#130);
#15=FACE_BOUND('',#36,.T.);
#16=FACE_BOUND('',#38,.T.);
#17=PLANE('',#153);
#18=PLANE('',#154);
#19=PLANE('',#155);
#20=PLANE('',#156);
#21=PLANE('',#157);
#22=PLANE('',#158);
#23=FACE_OUTER_BOUND('',#30,.T.);
#24=FACE_OUTER_BOUND('',#31,.T.);
#25=FACE_OUTER_BOUND('',#32,.T.);
#26=FACE_OUTER_BOUND('',#33,.T.);
#27=FACE_OUTER_BOUND('',#34,.T.);
#28=FACE_OUTER_BOUND('',#35,.T.);
#29=FACE_OUTER_BOUND('',#37,.T.);
#30=EDGE_LOOP('',(#92,#93,#94,#95));
#31=EDGE_LOOP('',(#96,#97,#98,#99));
#32=EDGE_LOOP('',(#100,#101,#102,#103));
#33=EDGE_LOOP('',(#104,#105,#106,#107));
#34=EDGE_LOOP('',(#108,#109,#110,#111));
#35=EDGE_LOOP('',(#112,#113,#114,#115));
#36=EDGE_LOOP('',(#116));
#37=EDGE_LOOP('',(#117,#118,#119,#120));
#38=EDGE_LOOP('',(#121));
#39=LINE('',#197,#52);
#40=LINE('',#202,#53);
#41=LINE('',#204,#54);
#42=LINE('',#206,#55);
#43=LINE('',#207,#56);
#44=LINE('',#210,#57);
#45=LINE('',#212,#58);
#46=LINE('',#213,#59);
#47=LINE('',#216,#60);
#48=LINE('',#218,#61);
#49=LINE('',#219,#62);
#50=LINE('',#221,#63);
#51=LINE('',#222,#64);
#52=VECTOR('',#165,4.1);
#53=VECTOR('',#170,10.);
#54=VECTOR('',#171,10.);
#55=VECTOR('',#172,10.);
#56=VECTOR('',#173,10.);
#57=VECTOR('',#176,10.);
#58=VECTOR('',#177,10.);
#59=VECTOR('',#178,10.);
#60=VECTOR('',#181,10.);
#61=VECTOR('',#182,10.);
#62=VECTOR('',#183,10.);
#63=VECTOR('',#186,10.);
#64=VECTOR('',#187,10.);
#65=CIRCLE('',#151,4.1);
#66=CIRCLE('',#152,4.1);
#67=VERTEX_POINT('',#194);
#68=VERTEX_POINT('',#196);
#69=VERTEX_POINT('',#200);
#70=VERTEX_POINT('',#201);
#71=VERTEX_POINT('',#203);
#72=VERTEX_POINT('',#205);
#73=VERTEX_POINT('',#209);
#74=VERTEX_POINT('',#211);
#75=VERTEX_POINT('',#215);
#76=VERTEX_POINT('',#217);
#77=EDGE_CURVE('',#67,#67,#65,.T.);
#78=EDGE_CURVE('',#67,#68,#39,.T.);
#79=EDGE_CURVE('',#68,#68,#66,.T.);
#80=EDGE_CURVE('',#69,#70,#40,.T.);
#81=EDGE_CURVE('',#71,#70,#41,.T.);
#82=EDGE_CURVE('',#71,#72,#42,.T.);
#83=EDGE_CURVE('',#72,#69,#43,.T.);
#84=EDGE_CURVE('',#70,#73,#44,.T.);
#85=EDGE_CURVE('',#74,#73,#45,.T.);
#86=EDGE_CURVE('',#74,#71,#46,.T.);
#87=EDGE_CURVE('',#73,#75,#47,.T.);
#88=EDGE_CURVE('',#76,#75,#48,.T.);
#89=EDGE_CURVE('',#76,#74,#49,.T.);
#90=EDGE_CURVE('',#75,#69,#50,.T.);
#91=EDGE_CURVE('',#72,#76,#51,.T.);
#92=ORIENTED_EDGE('',*,*,#77,.F.);
#93=ORIENTED_EDGE('',*,*,#78,.T.);
#94=ORIENTED_EDGE('',*,*,#79,.F.);
#95=ORIENTED_EDGE('',*,*,#78,.F.);
#96=ORIENTED_EDGE('',*,*,#80,.T.);
#97=ORIENTED_EDGE('',*,*,#81,.F.);
#98=ORIENTED_EDGE('',*,*,#82,.T.);
#99=ORIENTED_EDGE('',*,*,#83,.T.);
#100=ORIENTED_EDGE('',*,*,#84,.T.);
#101=ORIENTED_EDGE('',*,*,#85,.F.);
#102=ORIENTED_EDGE('',*,*,#86,.T.);
#103=ORIENTED_EDGE('',*,*,#81,.T.);
#104=ORIENTED_EDGE('',*,*,#87,.T.);
#105=ORIENTED_EDGE('',*,*,#88,.F.);
#106=ORIENTED_EDGE('',*,*,#89,.T.);
#107=ORIENTED_EDGE('',*,*,#85,.T.);
#108=ORIENTED_EDGE('',*,*,#90,.T.);
#109=ORIENTED_EDGE('',*,*,#83,.F.);
#110=ORIENTED_EDGE('',*,*,#91,.T.);
#111=ORIENTED_EDGE('',*,*,#88,.T.);
#112=ORIENTED_EDGE('',*,*,#91,.F.);
#113=ORIENTED_EDGE('',*,*,#82,.F.);
#114=ORIENTED_EDGE('',*,*,#86,.F.);
#115=ORIENTED_EDGE('',*,*,#89,.F.);
#116=ORIENTED_EDGE('',*,*,#77,.T.);
#117=ORIENTED_EDGE('',*,*,#80,.F.);
#118=ORIENTED_EDGE('',*,*,#90,.F.);
#119=ORIENTED_EDGE('',*,*,#87,.F.);
#120=ORIENTED_EDGE('',*,*,#84,.F.);
#121=ORIENTED_EDGE('',*,*,#79,.T.);
#122=CYLINDRICAL_SURFACE('',#150,4.1);
#123=ADVANCED_FACE('',(#23),#122,.F.);
#124=ADVANCED_FACE('',(#24),#17,.T.);
#125=ADVANCED_FACE('',(#25),#18,.T.);
#126=ADVANCED_FACE('',(#26),#19,.T.);
#127=ADVANCED_FACE('',(#27),#20,.T.);
#128=ADVANCED_FACE('',(#28,#15),#21,.F.);
#129=ADVANCED_FACE('',(#29,#16),#22,.T.);
#130=CLOSED_SHELL('',(#123,#124,#125,#126,#127,#128,#129));
#131=DERIVED_UNIT_ELEMENT(#133,1.);
#132=DERIVED_UNIT_ELEMENT(#230,-3.);
#133=(
MASS_UNIT()
NAMED_UNIT(*)
SI_UNIT($,.GRAM.)
);
#134=DERIVED_UNIT((#131,#132));
#135=MEASURE_REPRESENTATION_ITEM('density measure',
POSITIVE_RATIO_MEASURE(8.08),#134);
#136=PROPERTY_DEFINITION_REPRESENTATION(#141,#138);
#137=PROPERTY_DEFINITION_REPRESENTATION(#142,#139);
#138=REPRESENTATION('material name',(#140),#227);
#139=REPRESENTATION('density',(#135),#227);
#140=DESCRIPTIVE_REPRESENTATION_ITEM('Edelstahl','Edelstahl');
#141=PROPERTY_DEFINITION('material property','material name',#237);
#142=PROPERTY_DEFINITION('material property','density of part',#237);
#143=DATE_TIME_ROLE('creation_date');
#144=APPLIED_DATE_AND_TIME_ASSIGNMENT(#145,#143,(#237));
#145=DATE_AND_TIME(#146,#147);
#146=CALENDAR_DATE(2008,6,6);
#147=LOCAL_TIME(0,0,0.,#148);
#148=COORDINATED_UNIVERSAL_TIME_OFFSET(0,0,.BEHIND.);
#149=AXIS2_PLACEMENT_3D('placement',#192,#159,#160);
#150=AXIS2_PLACEMENT_3D('',#193,#161,#162);
#151=AXIS2_PLACEMENT_3D('',#195,#163,#164);
#152=AXIS2_PLACEMENT_3D('',#198,#166,#167);
#153=AXIS2_PLACEMENT_3D('',#199,#168,#169);
#154=AXIS2_PLACEMENT_3D('',#208,#174,#175);
#155=AXIS2_PLACEMENT_3D('',#214,#179,#180);
#156=AXIS2_PLACEMENT_3D('',#220,#184,#185);
#157=AXIS2_PLACEMENT_3D('',#223,#188,#189);
#158=AXIS2_PLACEMENT_3D('',#224,#190,#191);
#159=DIRECTION('axis',(0.,0.,1.));
#160=DIRECTION('refdir',(1.,0.,0.));
#161=DIRECTION('center_axis',(0.,0.,1.));
#162=DIRECTION('ref_axis',(-1.,0.,0.));
#163=DIRECTION('center_axis',(0.,0.,1.));
#164=DIRECTION('ref_axis',(-1.,0.,0.));
#165=DIRECTION('',(0.,0.,1.));
#166=DIRECTION('center_axis',(0.,0.,-1.));
#167=DIRECTION('ref_axis',(-1.,0.,0.));
#168=DIRECTION('center_axis',(-1.,-3.41607084500048E-16,0.));
#169=DIRECTION('ref_axis',(0.,0.,1.));
#170=DIRECTION('',(-3.41607084500048E-16,1.,0.));
#171=DIRECTION('',(0.,0.,1.));
#172=DIRECTION('',(3.41607084500048E-16,-1.,0.));
#173=DIRECTION('',(0.,0.,1.));
#174=DIRECTION('center_axis',(-5.97812397875084E-16,1.,0.));
#175=DIRECTION('ref_axis',(0.,0.,1.));
#176=DIRECTION('',(1.,5.97812397875084E-16,0.));
#177=DIRECTION('',(0.,0.,1.));
#178=DIRECTION('',(-1.,-5.97812397875084E-16,0.));
#179=DIRECTION('center_axis',(1.,-8.5401771125012E-17,0.));
#180=DIRECTION('ref_axis',(0.,0.,-1.));
#181=DIRECTION('',(-8.5401771125012E-17,-1.,0.));
#182=DIRECTION('',(0.,0.,1.));
#183=DIRECTION('',(8.5401771125012E-17,1.,0.));
#184=DIRECTION('center_axis',(0.,-1.,0.));
#185=DIRECTION('ref_axis',(0.,0.,-1.));
#186=DIRECTION('',(-1.,0.,0.));
#187=DIRECTION('',(1.,0.,0.));
#188=DIRECTION('center_axis',(0.,0.,1.));
#189=DIRECTION('ref_axis',(1.,0.,0.));
#190=DIRECTION('center_axis',(0.,0.,1.));
#191=DIRECTION('ref_axis',(1.,0.,0.));
#192=CARTESIAN_POINT('',(0.,0.,0.));
#193=CARTESIAN_POINT('Origin',(0.,0.,0.));
#194=CARTESIAN_POINT('',(4.1,5.02088605067175E-16,0.));
#195=CARTESIAN_POINT('Origin',(0.,0.,0.));
#196=CARTESIAN_POINT('',(4.1,5.02088605067175E-16,2.));
#197=CARTESIAN_POINT('',(4.1,5.02105187650415E-16,0.));
#198=CARTESIAN_POINT('Origin',(0.,0.,2.));
#199=CARTESIAN_POINT('Origin',(-6.5,-6.5,0.));
#200=CARTESIAN_POINT('',(-6.5,-6.5,2.));
#201=CARTESIAN_POINT('',(-6.5,6.5,2.));
#202=CARTESIAN_POINT('',(-6.5,6.5,2.));
#203=CARTESIAN_POINT('',(-6.5,6.5,0.));
#204=CARTESIAN_POINT('',(-6.5,6.5,0.));
#205=CARTESIAN_POINT('',(-6.5,-6.5,0.));
#206=CARTESIAN_POINT('',(-6.5,6.5,0.));
#207=CARTESIAN_POINT('',(-6.5,-6.5,0.));
#208=CARTESIAN_POINT('Origin',(-6.5,6.5,0.));
#209=CARTESIAN_POINT('',(6.5,6.5,2.));
#210=CARTESIAN_POINT('',(6.5,6.5,2.));
#211=CARTESIAN_POINT('',(6.5,6.5,0.));
#212=CARTESIAN_POINT('',(6.5,6.5,0.));
#213=CARTESIAN_POINT('',(6.5,6.5,0.));
#214=CARTESIAN_POINT('Origin',(6.5,6.5,0.));
#215=CARTESIAN_POINT('',(6.5,-6.5,2.));
#216=CARTESIAN_POINT('',(6.5,-6.5,2.));
#217=CARTESIAN_POINT('',(6.5,-6.5,0.));
#218=CARTESIAN_POINT('',(6.5,-6.5,0.));
#219=CARTESIAN_POINT('',(6.5,-6.5,0.));
#220=CARTESIAN_POINT('Origin',(6.5,-6.5,0.));
#221=CARTESIAN_POINT('',(-6.5,-6.5,2.));
#222=CARTESIAN_POINT('',(-6.5,-6.5,0.));
#223=CARTESIAN_POINT('Origin',(-1.11022302462516E-15,-1.96812263456278E-15,
0.));
#224=CARTESIAN_POINT('Origin',(-1.11022302462516E-15,-1.84196092721901E-15,
2.));
#225=UNCERTAINTY_MEASURE_WITH_UNIT(LENGTH_MEASURE(0.01),#229,
'DISTANCE_ACCURACY_VALUE',
'Maximum model space distance between geometric entities at asserted c
onnectivities');
#226=UNCERTAINTY_MEASURE_WITH_UNIT(LENGTH_MEASURE(0.01),#229,
'DISTANCE_ACCURACY_VALUE',
'Maximum model space distance between geometric entities at asserted c
onnectivities');
#227=(
GEOMETRIC_REPRESENTATION_CONTEXT(3)
GLOBAL_UNCERTAINTY_ASSIGNED_CONTEXT((#225))
GLOBAL_UNIT_ASSIGNED_CONTEXT((#229,#231,#232))
REPRESENTATION_CONTEXT('','3D')
);
#228=(
GEOMETRIC_REPRESENTATION_CONTEXT(3)
GLOBAL_UNCERTAINTY_ASSIGNED_CONTEXT((#226))
GLOBAL_UNIT_ASSIGNED_CONTEXT((#229,#231,#232))
REPRESENTATION_CONTEXT('','3D')
);
#229=(
LENGTH_UNIT()
NAMED_UNIT(*)
SI_UNIT(.MILLI.,.METRE.)
);
#230=(
LENGTH_UNIT()
NAMED_UNIT(*)
SI_UNIT(.CENTI.,.METRE.)
);
#231=(
NAMED_UNIT(*)
PLANE_ANGLE_UNIT()
SI_UNIT($,.RADIAN.)
);
#232=(
NAMED_UNIT(*)
SI_UNIT($,.STERADIAN.)
SOLID_ANGLE_UNIT()
);
#233=SHAPE_DEFINITION_REPRESENTATION(#234,#235);
#234=PRODUCT_DEFINITION_SHAPE('',$,#237);
#235=SHAPE_REPRESENTATION('',(#149),#227);
#236=PRODUCT_DEFINITION_CONTEXT('part definition',#241,'design');
#237=PRODUCT_DEFINITION('21-1360-1FZ.000','00002071',#238,#236);
#238=PRODUCT_DEFINITION_FORMATION('',$,#243);
#239=PRODUCT_RELATED_PRODUCT_CATEGORY('00002071','00002071',(#243));
#240=APPLICATION_PROTOCOL_DEFINITION('international standard',
'automotive_design',2009,#241);
#241=APPLICATION_CONTEXT(
'Core Data for Automotive Mechanical Design Process');
#242=PRODUCT_CONTEXT('part definition',#241,'mechanical');
#243=PRODUCT('21-1360-1FZ.000','00002071','korrosionsbest\X\E4ndig',(#242));
#244=PRESENTATION_STYLE_ASSIGNMENT((#245));
#245=SURFACE_STYLE_USAGE(.BOTH.,#246);
#246=SURFACE_SIDE_STYLE('',(#247));
#247=SURFACE_STYLE_FILL_AREA(#248);
#248=FILL_AREA_STYLE('',(#249));
#249=FILL_AREA_STYLE_COLOUR('',#250);
#250=COLOUR_RGB('',0.749019607843137,0.749019607843137,0.752941176470588);
ENDSEC;
END-ISO-10303-21;
