ISO-10303-21;
HEADER;
/* Generated by software containing ST-Developer
 * from STEP Tools, Inc. (www.steptools.com) 
 */

FILE_DESCRIPTION(
/* description */ ('Zylinderkopfschraube DIN 7984 - M5 x 10 rostfrei'),

/* implementation_level */ '2;1');

FILE_NAME(
/* name */ '\\\\fileserver\\Daten2\\STEP Daten fuer PIM\\211279-1.step',

/* time_stamp */ '2021-08-27T11:42:43+02:00',
/* author */ ('Administrator'),
/* organization */ (''),
/* preprocessor_version */ 'ST-DEVELOPER v18.1',
/* originating_system */ 'Autodesk Inventor 2021',
/* authorisation */ '');

FILE_SCHEMA (('AUTOMOTIVE_DESIGN { 1 0 10303 214 3 1 1 }'));
ENDSEC;

DATA;
#10=MECHANICAL_DESIGN_GEOMETRIC_PRESENTATION_REPRESENTATION('',(#13),#370);
#11=SHAPE_REPRESENTATION_RELATIONSHIP('SRR','None',#377,#12);
#12=ADVANCED_BREP_SHAPE_REPRESENTATION('',(#14),#369);
#13=STYLED_ITEM('',(#389),#14);
#14=MANIFOLD_SOLID_BREP('Volumenk\X\F6rper1',#213);
#15=CONICAL_SURFACE('',#248,2.37500000000001,0.785398163397449);
#16=CYLINDRICAL_SURFACE('',#242,4.25000000000002);
#17=CYLINDRICAL_SURFACE('',#246,2.50000000000001);
#18=FACE_BOUND('',#46,.T.);
#19=FACE_BOUND('',#49,.T.);
#20=CIRCLE('',#241,4.25000000000002);
#21=CIRCLE('',#243,4.25000000000002);
#22=CIRCLE('',#245,2.50000000000001);
#23=CIRCLE('',#247,2.50000000000001);
#24=CIRCLE('',#249,2.25000000000001);
#25=FACE_OUTER_BOUND('',#38,.T.);
#26=FACE_OUTER_BOUND('',#39,.T.);
#27=FACE_OUTER_BOUND('',#40,.T.);
#28=FACE_OUTER_BOUND('',#41,.T.);
#29=FACE_OUTER_BOUND('',#42,.T.);
#30=FACE_OUTER_BOUND('',#43,.T.);
#31=FACE_OUTER_BOUND('',#44,.T.);
#32=FACE_OUTER_BOUND('',#45,.T.);
#33=FACE_OUTER_BOUND('',#47,.T.);
#34=FACE_OUTER_BOUND('',#48,.T.);
#35=FACE_OUTER_BOUND('',#50,.T.);
#36=FACE_OUTER_BOUND('',#51,.T.);
#37=FACE_OUTER_BOUND('',#52,.T.);
#38=EDGE_LOOP('',(#138,#139,#140,#141));
#39=EDGE_LOOP('',(#142,#143,#144,#145));
#40=EDGE_LOOP('',(#146,#147,#148,#149));
#41=EDGE_LOOP('',(#150,#151,#152,#153));
#42=EDGE_LOOP('',(#154,#155,#156,#157));
#43=EDGE_LOOP('',(#158,#159,#160,#161));
#44=EDGE_LOOP('',(#162,#163,#164,#165,#166,#167));
#45=EDGE_LOOP('',(#168));
#46=EDGE_LOOP('',(#169,#170,#171,#172,#173,#174));
#47=EDGE_LOOP('',(#175,#176,#177,#178));
#48=EDGE_LOOP('',(#179));
#49=EDGE_LOOP('',(#180));
#50=EDGE_LOOP('',(#181,#182,#183,#184));
#51=EDGE_LOOP('',(#185,#186,#187,#188));
#52=EDGE_LOOP('',(#189));
#53=LINE('',#314,#74);
#54=LINE('',#316,#75);
#55=LINE('',#318,#76);
#56=LINE('',#319,#77);
#57=LINE('',#322,#78);
#58=LINE('',#324,#79);
#59=LINE('',#325,#80);
#60=LINE('',#328,#81);
#61=LINE('',#330,#82);
#62=LINE('',#331,#83);
#63=LINE('',#334,#84);
#64=LINE('',#336,#85);
#65=LINE('',#337,#86);
#66=LINE('',#340,#87);
#67=LINE('',#342,#88);
#68=LINE('',#343,#89);
#69=LINE('',#345,#90);
#70=LINE('',#346,#91);
#71=LINE('',#354,#92);
#72=LINE('',#361,#93);
#73=LINE('',#364,#94);
#74=VECTOR('',#255,1.73205080756888);
#75=VECTOR('',#256,2.7);
#76=VECTOR('',#257,1.73205080756888);
#77=VECTOR('',#258,2.7);
#78=VECTOR('',#261,1.73205080756888);
#79=VECTOR('',#262,1.73205080756888);
#80=VECTOR('',#263,2.7);
#81=VECTOR('',#266,1.73205080756888);
#82=VECTOR('',#267,1.73205080756888);
#83=VECTOR('',#268,2.7);
#84=VECTOR('',#271,1.73205080756888);
#85=VECTOR('',#272,1.73205080756888);
#86=VECTOR('',#273,2.7);
#87=VECTOR('',#276,1.73205080756888);
#88=VECTOR('',#277,1.73205080756888);
#89=VECTOR('',#278,2.7);
#90=VECTOR('',#281,1.73205080756888);
#91=VECTOR('',#282,1.73205080756888);
#92=VECTOR('',#293,4.25000000000002);
#93=VECTOR('',#302,2.50000000000001);
#94=VECTOR('',#305,2.37500000000001);
#95=VERTEX_POINT('',#312);
#96=VERTEX_POINT('',#313);
#97=VERTEX_POINT('',#315);
#98=VERTEX_POINT('',#317);
#99=VERTEX_POINT('',#321);
#100=VERTEX_POINT('',#323);
#101=VERTEX_POINT('',#327);
#102=VERTEX_POINT('',#329);
#103=VERTEX_POINT('',#333);
#104=VERTEX_POINT('',#335);
#105=VERTEX_POINT('',#339);
#106=VERTEX_POINT('',#341);
#107=VERTEX_POINT('',#349);
#108=VERTEX_POINT('',#352);
#109=VERTEX_POINT('',#356);
#110=VERTEX_POINT('',#359);
#111=VERTEX_POINT('',#363);
#112=EDGE_CURVE('',#95,#96,#53,.T.);
#113=EDGE_CURVE('',#97,#95,#54,.T.);
#114=EDGE_CURVE('',#98,#97,#55,.T.);
#115=EDGE_CURVE('',#98,#96,#56,.T.);
#116=EDGE_CURVE('',#96,#99,#57,.T.);
#117=EDGE_CURVE('',#100,#98,#58,.T.);
#118=EDGE_CURVE('',#100,#99,#59,.T.);
#119=EDGE_CURVE('',#99,#101,#60,.T.);
#120=EDGE_CURVE('',#102,#100,#61,.T.);
#121=EDGE_CURVE('',#102,#101,#62,.T.);
#122=EDGE_CURVE('',#101,#103,#63,.T.);
#123=EDGE_CURVE('',#104,#102,#64,.T.);
#124=EDGE_CURVE('',#104,#103,#65,.T.);
#125=EDGE_CURVE('',#103,#105,#66,.T.);
#126=EDGE_CURVE('',#106,#104,#67,.T.);
#127=EDGE_CURVE('',#106,#105,#68,.T.);
#128=EDGE_CURVE('',#105,#95,#69,.T.);
#129=EDGE_CURVE('',#97,#106,#70,.T.);
#130=EDGE_CURVE('',#107,#107,#20,.T.);
#131=EDGE_CURVE('',#108,#108,#21,.T.);
#132=EDGE_CURVE('',#108,#107,#71,.T.);
#133=EDGE_CURVE('',#109,#109,#22,.T.);
#134=EDGE_CURVE('',#110,#110,#23,.T.);
#135=EDGE_CURVE('',#110,#109,#72,.T.);
#136=EDGE_CURVE('',#110,#111,#73,.T.);
#137=EDGE_CURVE('',#111,#111,#24,.T.);
#138=ORIENTED_EDGE('',*,*,#112,.F.);
#139=ORIENTED_EDGE('',*,*,#113,.F.);
#140=ORIENTED_EDGE('',*,*,#114,.F.);
#141=ORIENTED_EDGE('',*,*,#115,.T.);
#142=ORIENTED_EDGE('',*,*,#116,.F.);
#143=ORIENTED_EDGE('',*,*,#115,.F.);
#144=ORIENTED_EDGE('',*,*,#117,.F.);
#145=ORIENTED_EDGE('',*,*,#118,.T.);
#146=ORIENTED_EDGE('',*,*,#119,.F.);
#147=ORIENTED_EDGE('',*,*,#118,.F.);
#148=ORIENTED_EDGE('',*,*,#120,.F.);
#149=ORIENTED_EDGE('',*,*,#121,.T.);
#150=ORIENTED_EDGE('',*,*,#122,.F.);
#151=ORIENTED_EDGE('',*,*,#121,.F.);
#152=ORIENTED_EDGE('',*,*,#123,.F.);
#153=ORIENTED_EDGE('',*,*,#124,.T.);
#154=ORIENTED_EDGE('',*,*,#125,.F.);
#155=ORIENTED_EDGE('',*,*,#124,.F.);
#156=ORIENTED_EDGE('',*,*,#126,.F.);
#157=ORIENTED_EDGE('',*,*,#127,.T.);
#158=ORIENTED_EDGE('',*,*,#128,.F.);
#159=ORIENTED_EDGE('',*,*,#127,.F.);
#160=ORIENTED_EDGE('',*,*,#129,.F.);
#161=ORIENTED_EDGE('',*,*,#113,.T.);
#162=ORIENTED_EDGE('',*,*,#112,.T.);
#163=ORIENTED_EDGE('',*,*,#116,.T.);
#164=ORIENTED_EDGE('',*,*,#119,.T.);
#165=ORIENTED_EDGE('',*,*,#122,.T.);
#166=ORIENTED_EDGE('',*,*,#125,.T.);
#167=ORIENTED_EDGE('',*,*,#128,.T.);
#168=ORIENTED_EDGE('',*,*,#130,.F.);
#169=ORIENTED_EDGE('',*,*,#114,.T.);
#170=ORIENTED_EDGE('',*,*,#129,.T.);
#171=ORIENTED_EDGE('',*,*,#126,.T.);
#172=ORIENTED_EDGE('',*,*,#123,.T.);
#173=ORIENTED_EDGE('',*,*,#120,.T.);
#174=ORIENTED_EDGE('',*,*,#117,.T.);
#175=ORIENTED_EDGE('',*,*,#131,.F.);
#176=ORIENTED_EDGE('',*,*,#132,.T.);
#177=ORIENTED_EDGE('',*,*,#130,.T.);
#178=ORIENTED_EDGE('',*,*,#132,.F.);
#179=ORIENTED_EDGE('',*,*,#131,.T.);
#180=ORIENTED_EDGE('',*,*,#133,.F.);
#181=ORIENTED_EDGE('',*,*,#134,.F.);
#182=ORIENTED_EDGE('',*,*,#135,.T.);
#183=ORIENTED_EDGE('',*,*,#133,.T.);
#184=ORIENTED_EDGE('',*,*,#135,.F.);
#185=ORIENTED_EDGE('',*,*,#134,.T.);
#186=ORIENTED_EDGE('',*,*,#136,.T.);
#187=ORIENTED_EDGE('',*,*,#137,.F.);
#188=ORIENTED_EDGE('',*,*,#136,.F.);
#189=ORIENTED_EDGE('',*,*,#137,.T.);
#190=PLANE('',#233);
#191=PLANE('',#234);
#192=PLANE('',#235);
#193=PLANE('',#236);
#194=PLANE('',#237);
#195=PLANE('',#238);
#196=PLANE('',#239);
#197=PLANE('',#240);
#198=PLANE('',#244);
#199=PLANE('',#250);
#200=ADVANCED_FACE('',(#25),#190,.F.);
#201=ADVANCED_FACE('',(#26),#191,.F.);
#202=ADVANCED_FACE('',(#27),#192,.F.);
#203=ADVANCED_FACE('',(#28),#193,.F.);
#204=ADVANCED_FACE('',(#29),#194,.F.);
#205=ADVANCED_FACE('',(#30),#195,.F.);
#206=ADVANCED_FACE('',(#31),#196,.F.);
#207=ADVANCED_FACE('',(#32,#18),#197,.T.);
#208=ADVANCED_FACE('',(#33),#16,.T.);
#209=ADVANCED_FACE('',(#34,#19),#198,.T.);
#210=ADVANCED_FACE('',(#35),#17,.T.);
#211=ADVANCED_FACE('',(#36),#15,.T.);
#212=ADVANCED_FACE('',(#37),#199,.T.);
#213=CLOSED_SHELL('',(#200,#201,#202,#203,#204,#205,#206,#207,#208,#209,
#210,#211,#212));
#214=DERIVED_UNIT_ELEMENT(#216,1.);
#215=DERIVED_UNIT_ELEMENT(#372,-3.);
#216=(
MASS_UNIT()
NAMED_UNIT(*)
SI_UNIT($,.GRAM.)
);
#217=DERIVED_UNIT((#214,#215));
#218=MEASURE_REPRESENTATION_ITEM('density measure',
POSITIVE_RATIO_MEASURE(7.75),#217);
#219=PROPERTY_DEFINITION_REPRESENTATION(#224,#221);
#220=PROPERTY_DEFINITION_REPRESENTATION(#225,#222);
#221=REPRESENTATION('material name',(#223),#369);
#222=REPRESENTATION('density',(#218),#369);
#223=DESCRIPTIVE_REPRESENTATION_ITEM('V2A','V2A');
#224=PROPERTY_DEFINITION('material property','material name',#379);
#225=PROPERTY_DEFINITION('material property','density of part',#379);
#226=DATE_TIME_ROLE('creation_date');
#227=APPLIED_DATE_AND_TIME_ASSIGNMENT(#228,#226,(#379));
#228=DATE_AND_TIME(#229,#230);
#229=CALENDAR_DATE(2016,26,7);
#230=LOCAL_TIME(0,0,0.,#231);
#231=COORDINATED_UNIVERSAL_TIME_OFFSET(0,0,.BEHIND.);
#232=AXIS2_PLACEMENT_3D('placement',#310,#251,#252);
#233=AXIS2_PLACEMENT_3D('',#311,#253,#254);
#234=AXIS2_PLACEMENT_3D('',#320,#259,#260);
#235=AXIS2_PLACEMENT_3D('',#326,#264,#265);
#236=AXIS2_PLACEMENT_3D('',#332,#269,#270);
#237=AXIS2_PLACEMENT_3D('',#338,#274,#275);
#238=AXIS2_PLACEMENT_3D('',#344,#279,#280);
#239=AXIS2_PLACEMENT_3D('',#347,#283,#284);
#240=AXIS2_PLACEMENT_3D('',#348,#285,#286);
#241=AXIS2_PLACEMENT_3D('',#350,#287,#288);
#242=AXIS2_PLACEMENT_3D('',#351,#289,#290);
#243=AXIS2_PLACEMENT_3D('',#353,#291,#292);
#244=AXIS2_PLACEMENT_3D('',#355,#294,#295);
#245=AXIS2_PLACEMENT_3D('',#357,#296,#297);
#246=AXIS2_PLACEMENT_3D('',#358,#298,#299);
#247=AXIS2_PLACEMENT_3D('',#360,#300,#301);
#248=AXIS2_PLACEMENT_3D('',#362,#303,#304);
#249=AXIS2_PLACEMENT_3D('',#365,#306,#307);
#250=AXIS2_PLACEMENT_3D('',#366,#308,#309);
#251=DIRECTION('axis',(0.,0.,1.));
#252=DIRECTION('refdir',(1.,0.,0.));
#253=DIRECTION('center_axis',(-0.5,-2.670782E-16,0.866025403784439));
#254=DIRECTION('ref_axis',(0.866025403784439,0.,0.5));
#255=DIRECTION('',(-0.866025403784439,0.,-0.5));
#256=DIRECTION('',(0.,1.,0.));
#257=DIRECTION('',(0.866025403784439,0.,0.5));
#258=DIRECTION('',(0.,1.,0.));
#259=DIRECTION('center_axis',(-1.,0.,0.));
#260=DIRECTION('ref_axis',(0.,0.,1.));
#261=DIRECTION('',(0.,0.,-1.));
#262=DIRECTION('',(0.,0.,1.));
#263=DIRECTION('',(0.,1.,0.));
#264=DIRECTION('center_axis',(-0.5,2.670782E-16,-0.866025403784439));
#265=DIRECTION('ref_axis',(-0.866025403784439,-2.46519032881566E-32,0.5));
#266=DIRECTION('',(0.866025403784439,0.,-0.5));
#267=DIRECTION('',(-0.866025403784439,0.,0.5));
#268=DIRECTION('',(0.,1.,0.));
#269=DIRECTION('center_axis',(0.5,2.670782E-16,-0.866025403784438));
#270=DIRECTION('ref_axis',(-0.866025403784438,4.93038065763133E-32,-0.5));
#271=DIRECTION('',(0.866025403784439,0.,0.5));
#272=DIRECTION('',(-0.866025403784439,0.,-0.5));
#273=DIRECTION('',(0.,1.,0.));
#274=DIRECTION('center_axis',(1.,0.,0.));
#275=DIRECTION('ref_axis',(0.,0.,-1.));
#276=DIRECTION('',(0.,0.,1.));
#277=DIRECTION('',(0.,0.,-1.));
#278=DIRECTION('',(0.,1.,0.));
#279=DIRECTION('center_axis',(0.5,-2.670782E-16,0.866025403784439));
#280=DIRECTION('ref_axis',(0.866025403784439,0.,-0.5));
#281=DIRECTION('',(-0.866025403784439,0.,0.5));
#282=DIRECTION('',(0.866025403784439,0.,-0.5));
#283=DIRECTION('center_axis',(0.,1.,0.));
#284=DIRECTION('ref_axis',(0.,0.,1.));
#285=DIRECTION('center_axis',(0.,-1.,0.));
#286=DIRECTION('ref_axis',(0.,0.,-1.));
#287=DIRECTION('center_axis',(0.,1.,0.));
#288=DIRECTION('ref_axis',(0.,0.,1.));
#289=DIRECTION('center_axis',(0.,1.,2.963191E-16));
#290=DIRECTION('ref_axis',(0.,-2.963191E-16,1.));
#291=DIRECTION('center_axis',(0.,1.,0.));
#292=DIRECTION('ref_axis',(0.,0.,1.));
#293=DIRECTION('',(0.,-1.,-2.963191E-16));
#294=DIRECTION('center_axis',(0.,1.,0.));
#295=DIRECTION('ref_axis',(0.,0.,1.));
#296=DIRECTION('center_axis',(0.,1.,0.));
#297=DIRECTION('ref_axis',(0.,0.,1.));
#298=DIRECTION('center_axis',(0.,1.,2.963191E-16));
#299=DIRECTION('ref_axis',(0.,-2.963191E-16,1.));
#300=DIRECTION('center_axis',(0.,1.,0.));
#301=DIRECTION('ref_axis',(0.,0.,1.));
#302=DIRECTION('',(0.,-1.,-2.963191E-16));
#303=DIRECTION('center_axis',(0.,-1.,-2.963191E-16));
#304=DIRECTION('ref_axis',(0.,-2.963191E-16,1.));
#305=DIRECTION('',(-8.65956056235494E-17,0.707106781186547,0.707106781186548));
#306=DIRECTION('center_axis',(0.,1.,0.));
#307=DIRECTION('ref_axis',(0.,0.,1.));
#308=DIRECTION('center_axis',(0.,1.,0.));
#309=DIRECTION('ref_axis',(0.,0.,1.));
#310=CARTESIAN_POINT('',(0.,0.,0.));
#311=CARTESIAN_POINT('Origin',(1.060094E-15,-13.5,1.73205080756887));
#312=CARTESIAN_POINT('',(1.060094E-15,-10.8,1.73205080756887));
#313=CARTESIAN_POINT('',(-1.5,-10.8,0.866025403784433));
#314=CARTESIAN_POINT('',(1.060094E-15,-10.8,1.73205080756887));
#315=CARTESIAN_POINT('',(1.060094E-15,-13.5,1.73205080756887));
#316=CARTESIAN_POINT('',(1.060094E-15,-13.5,1.73205080756887));
#317=CARTESIAN_POINT('',(-1.5,-13.5,0.866025403784432));
#318=CARTESIAN_POINT('',(-1.5,-13.5,0.866025403784432));
#319=CARTESIAN_POINT('',(-1.5,-13.5,0.866025403784432));
#320=CARTESIAN_POINT('Origin',(-1.5,-13.5,0.866025403784432));
#321=CARTESIAN_POINT('',(-1.5,-10.8,-0.866025403784444));
#322=CARTESIAN_POINT('',(-1.5,-10.8,0.866025403784433));
#323=CARTESIAN_POINT('',(-1.5,-13.5,-0.866025403784444));
#324=CARTESIAN_POINT('',(-1.5,-13.5,-0.866025403784444));
#325=CARTESIAN_POINT('',(-1.5,-13.5,-0.866025403784444));
#326=CARTESIAN_POINT('Origin',(-1.5,-13.5,-0.866025403784444));
#327=CARTESIAN_POINT('',(1.563164E-15,-10.8,-1.73205080756888));
#328=CARTESIAN_POINT('',(-1.5,-10.8,-0.866025403784444));
#329=CARTESIAN_POINT('',(1.563164E-15,-13.5,-1.73205080756888));
#330=CARTESIAN_POINT('',(1.563164E-15,-13.5,-1.73205080756888));
#331=CARTESIAN_POINT('',(1.563164E-15,-13.5,-1.73205080756888));
#332=CARTESIAN_POINT('Origin',(1.563164E-15,-13.5,-1.73205080756888));
#333=CARTESIAN_POINT('',(1.5,-10.8,-0.866025403784443));
#334=CARTESIAN_POINT('',(1.563164E-15,-10.8,-1.73205080756888));
#335=CARTESIAN_POINT('',(1.5,-13.5,-0.866025403784443));
#336=CARTESIAN_POINT('',(1.5,-13.5,-0.866025403784443));
#337=CARTESIAN_POINT('',(1.5,-13.5,-0.866025403784443));
#338=CARTESIAN_POINT('Origin',(1.5,-13.5,-0.866025403784443));
#339=CARTESIAN_POINT('',(1.5,-10.8,0.866025403784434));
#340=CARTESIAN_POINT('',(1.5,-10.8,-0.866025403784443));
#341=CARTESIAN_POINT('',(1.5,-13.5,0.866025403784433));
#342=CARTESIAN_POINT('',(1.5,-13.5,0.866025403784433));
#343=CARTESIAN_POINT('',(1.5,-13.5,0.866025403784433));
#344=CARTESIAN_POINT('Origin',(1.5,-13.5,0.866025403784433));
#345=CARTESIAN_POINT('',(1.5,-10.8,0.866025403784434));
#346=CARTESIAN_POINT('',(1.060094E-15,-13.5,1.73205080756887));
#347=CARTESIAN_POINT('Origin',(9.367507E-16,-10.8,-4.440892E-15));
#348=CARTESIAN_POINT('Origin',(0.,-13.5,2.125));
#349=CARTESIAN_POINT('',(-5.20474889637627E-16,-13.5,-4.25000000000002));
#350=CARTESIAN_POINT('Origin',(0.,-13.5,-4.000308E-15));
#351=CARTESIAN_POINT('Origin',(0.,-11.75,-3.481749E-15));
#352=CARTESIAN_POINT('',(-5.20474889637627E-16,-10.,-4.25000000000002));
#353=CARTESIAN_POINT('Origin',(0.,-10.,-2.963191E-15));
#354=CARTESIAN_POINT('',(-5.20474889637627E-16,-11.75,-4.25000000000002));
#355=CARTESIAN_POINT('Origin',(0.,-10.,3.37500000000001));
#356=CARTESIAN_POINT('',(-3.06161699786839E-16,-10.,-2.50000000000001));
#357=CARTESIAN_POINT('Origin',(0.,-10.,-2.963191E-15));
#358=CARTESIAN_POINT('Origin',(0.,-5.125,-1.518635E-15));
#359=CARTESIAN_POINT('',(-3.06161699786839E-16,-0.249999999999997,-2.50000000000001));
#360=CARTESIAN_POINT('Origin',(0.,-0.249999999999999,-7.407977E-17));
#361=CARTESIAN_POINT('',(-3.06161699786839E-16,-5.125,-2.50000000000001));
#362=CARTESIAN_POINT('Origin',(0.,-0.124999999999999,-3.703989E-17));
#363=CARTESIAN_POINT('',(2.75545529808156E-16,1.47451495458029E-15,-2.25000000000001));
#364=CARTESIAN_POINT('',(2.90853614797497E-16,-0.124999999999998,-2.37500000000001));
#365=CARTESIAN_POINT('Origin',(0.,6.667179E-16,1.975613E-31));
#366=CARTESIAN_POINT('Origin',(0.,5.007418E-32,1.125));
#367=UNCERTAINTY_MEASURE_WITH_UNIT(LENGTH_MEASURE(0.01),#371,
'DISTANCE_ACCURACY_VALUE',
'Maximum model space distance between geometric entities at asserted c
onnectivities');
#368=UNCERTAINTY_MEASURE_WITH_UNIT(LENGTH_MEASURE(0.01),#371,
'DISTANCE_ACCURACY_VALUE',
'Maximum model space distance between geometric entities at asserted c
onnectivities');
#369=(
GEOMETRIC_REPRESENTATION_CONTEXT(3)
GLOBAL_UNCERTAINTY_ASSIGNED_CONTEXT((#367))
GLOBAL_UNIT_ASSIGNED_CONTEXT((#371,#373,#374))
REPRESENTATION_CONTEXT('','3D')
);
#370=(
GEOMETRIC_REPRESENTATION_CONTEXT(3)
GLOBAL_UNCERTAINTY_ASSIGNED_CONTEXT((#368))
GLOBAL_UNIT_ASSIGNED_CONTEXT((#371,#373,#374))
REPRESENTATION_CONTEXT('','3D')
);
#371=(
LENGTH_UNIT()
NAMED_UNIT(*)
SI_UNIT(.MILLI.,.METRE.)
);
#372=(
LENGTH_UNIT()
NAMED_UNIT(*)
SI_UNIT(.CENTI.,.METRE.)
);
#373=(
NAMED_UNIT(*)
PLANE_ANGLE_UNIT()
SI_UNIT($,.RADIAN.)
);
#374=(
NAMED_UNIT(*)
SI_UNIT($,.STERADIAN.)
SOLID_ANGLE_UNIT()
);
#375=SHAPE_DEFINITION_REPRESENTATION(#376,#377);
#376=PRODUCT_DEFINITION_SHAPE('',$,#379);
#377=SHAPE_REPRESENTATION('',(#232),#369);
#378=PRODUCT_DEFINITION_CONTEXT('part definition',#383,'design');
#379=PRODUCT_DEFINITION('leer','00238435',#380,#378);
#380=PRODUCT_DEFINITION_FORMATION('NoneNone',$,#385);
#381=PRODUCT_RELATED_PRODUCT_CATEGORY('00238435','00238435',(#385));
#382=APPLICATION_PROTOCOL_DEFINITION('international standard',
'automotive_design',2009,#383);
#383=APPLICATION_CONTEXT(
'Core Data for Automotive Mechanical Design Process');
#384=PRODUCT_CONTEXT('part definition',#383,'mechanical');
#385=PRODUCT('leer','00238435',
'Zylinderkopfschraube DIN 7984 - M5 x 10 rostfrei',(#384));
#386=SURFACE_STYLE_RENDERING_WITH_PROPERTIES($,#407,(#387));
#387=SURFACE_STYLE_TRANSPARENT(0.);
#388=PRESENTATION_STYLE_ASSIGNMENT((#391));
#389=PRESENTATION_STYLE_ASSIGNMENT((#392));
#390=PRESENTATION_STYLE_ASSIGNMENT((#393));
#391=SURFACE_STYLE_USAGE(.BOTH.,#394);
#392=SURFACE_STYLE_USAGE(.BOTH.,#395);
#393=SURFACE_STYLE_USAGE(.BOTH.,#396);
#394=SURFACE_SIDE_STYLE('',(#397));
#395=SURFACE_SIDE_STYLE('',(#398,#386));
#396=SURFACE_SIDE_STYLE('',(#399));
#397=SURFACE_STYLE_FILL_AREA(#400);
#398=SURFACE_STYLE_FILL_AREA(#401);
#399=SURFACE_STYLE_FILL_AREA(#402);
#400=FILL_AREA_STYLE('',(#403));
#401=FILL_AREA_STYLE('',(#404));
#402=FILL_AREA_STYLE('',(#405));
#403=FILL_AREA_STYLE_COLOUR('',#406);
#404=FILL_AREA_STYLE_COLOUR('',#407);
#405=FILL_AREA_STYLE_COLOUR('',#408);
#406=COLOUR_RGB('',0.749019607843137,0.749019607843137,0.752941176470588);
#407=COLOUR_RGB('',0.63921568627451,0.63921568627451,0.686274509803922);
#408=COLOUR_RGB('',0.501960784313725,0.,0.501960784313725);
ENDSEC;
END-ISO-10303-21;
