ISO-10303-21;
HEADER;
/* Generated by software containing ST-Developer
 * from STEP Tools, Inc. (www.steptools.com) 
 */

FILE_DESCRIPTION(
/* description */ ('O-Ring NBR, 80x5'),
/* implementation_level */ '2;1');

FILE_NAME(
/* name */ '\\\\fileserver\\Daten2\\STEP Daten fuer PIM\\211050-1.step',

/* time_stamp */ '2021-08-26T09:18:58+02:00',
/* author */ ('MuellerJ'),
/* organization */ (''),
/* preprocessor_version */ 'ST-DEVELOPER v18.1',
/* originating_system */ 'Autodesk Inventor 2021',
/* authorisation */ '');

FILE_SCHEMA (('AUTOMOTIVE_DESIGN { 1 0 10303 214 3 1 1 }'));
ENDSEC;

DATA;
#10=MECHANICAL_DESIGN_GEOMETRIC_PRESENTATION_REPRESENTATION('',(#13),#183);
#11=SHAPE_REPRESENTATION_RELATIONSHIP('SRR','None',#190,#12);
#12=ADVANCED_BREP_SHAPE_REPRESENTATION('',(#14),#182);
#13=STYLED_ITEM('',(#199),#14);
#14=MANIFOLD_SOLID_BREP('Volumenk\X\F6rper1',#89);
#15=LINE('',#168,#17);
#16=LINE('',#179,#18);
#17=VECTOR('',#139,2.5);
#18=VECTOR('',#154,2.5);
#19=CYLINDRICAL_SURFACE('',#115,2.5);
#20=CYLINDRICAL_SURFACE('',#122,2.5);
#21=FACE_OUTER_BOUND('',#25,.T.);
#22=FACE_OUTER_BOUND('',#26,.T.);
#23=FACE_OUTER_BOUND('',#27,.T.);
#24=FACE_OUTER_BOUND('',#28,.T.);
#25=EDGE_LOOP('',(#59,#60,#61,#62,#63,#64));
#26=EDGE_LOOP('',(#65,#66,#67,#68,#69,#70));
#27=EDGE_LOOP('',(#71,#72,#73,#74,#75,#76));
#28=EDGE_LOOP('',(#77,#78,#79,#80,#81,#82));
#29=CIRCLE('',#110,2.5);
#30=CIRCLE('',#111,2.5);
#31=CIRCLE('',#112,19.);
#32=CIRCLE('',#113,2.5);
#33=CIRCLE('',#114,2.5);
#34=CIRCLE('',#116,2.5);
#35=CIRCLE('',#117,2.5);
#36=CIRCLE('',#119,19.);
#37=CIRCLE('',#120,2.5);
#38=CIRCLE('',#121,2.5);
#39=VERTEX_POINT('',#157);
#40=VERTEX_POINT('',#158);
#41=VERTEX_POINT('',#161);
#42=VERTEX_POINT('',#163);
#43=VERTEX_POINT('',#167);
#44=VERTEX_POINT('',#169);
#45=VERTEX_POINT('',#173);
#46=VERTEX_POINT('',#175);
#47=EDGE_CURVE('',#39,#40,#29,.T.);
#48=EDGE_CURVE('',#40,#39,#30,.T.);
#49=EDGE_CURVE('',#40,#41,#31,.T.);
#50=EDGE_CURVE('',#41,#42,#32,.T.);
#51=EDGE_CURVE('',#42,#41,#33,.T.);
#52=EDGE_CURVE('',#42,#43,#15,.T.);
#53=EDGE_CURVE('',#43,#44,#34,.T.);
#54=EDGE_CURVE('',#44,#43,#35,.T.);
#55=EDGE_CURVE('',#44,#45,#36,.T.);
#56=EDGE_CURVE('',#45,#46,#37,.T.);
#57=EDGE_CURVE('',#46,#45,#38,.T.);
#58=EDGE_CURVE('',#46,#39,#16,.T.);
#59=ORIENTED_EDGE('',*,*,#47,.F.);
#60=ORIENTED_EDGE('',*,*,#48,.F.);
#61=ORIENTED_EDGE('',*,*,#49,.T.);
#62=ORIENTED_EDGE('',*,*,#50,.T.);
#63=ORIENTED_EDGE('',*,*,#51,.T.);
#64=ORIENTED_EDGE('',*,*,#49,.F.);
#65=ORIENTED_EDGE('',*,*,#51,.F.);
#66=ORIENTED_EDGE('',*,*,#52,.T.);
#67=ORIENTED_EDGE('',*,*,#53,.T.);
#68=ORIENTED_EDGE('',*,*,#54,.T.);
#69=ORIENTED_EDGE('',*,*,#52,.F.);
#70=ORIENTED_EDGE('',*,*,#50,.F.);
#71=ORIENTED_EDGE('',*,*,#53,.F.);
#72=ORIENTED_EDGE('',*,*,#54,.F.);
#73=ORIENTED_EDGE('',*,*,#55,.T.);
#74=ORIENTED_EDGE('',*,*,#56,.T.);
#75=ORIENTED_EDGE('',*,*,#57,.T.);
#76=ORIENTED_EDGE('',*,*,#55,.F.);
#77=ORIENTED_EDGE('',*,*,#57,.F.);
#78=ORIENTED_EDGE('',*,*,#58,.T.);
#79=ORIENTED_EDGE('',*,*,#47,.T.);
#80=ORIENTED_EDGE('',*,*,#48,.T.);
#81=ORIENTED_EDGE('',*,*,#58,.F.);
#82=ORIENTED_EDGE('',*,*,#56,.F.);
#83=TOROIDAL_SURFACE('',#109,21.5,2.5);
#84=TOROIDAL_SURFACE('',#118,21.5,2.5);
#85=ADVANCED_FACE('',(#21),#83,.T.);
#86=ADVANCED_FACE('',(#22),#19,.T.);
#87=ADVANCED_FACE('',(#23),#84,.T.);
#88=ADVANCED_FACE('',(#24),#20,.T.);
#89=CLOSED_SHELL('',(#85,#86,#87,#88));
#90=DERIVED_UNIT_ELEMENT(#92,1.);
#91=DERIVED_UNIT_ELEMENT(#185,-3.);
#92=(
MASS_UNIT()
NAMED_UNIT(*)
SI_UNIT($,.GRAM.)
);
#93=DERIVED_UNIT((#90,#91));
#94=MEASURE_REPRESENTATION_ITEM('density measure',
POSITIVE_RATIO_MEASURE(1.06),#93);
#95=PROPERTY_DEFINITION_REPRESENTATION(#100,#97);
#96=PROPERTY_DEFINITION_REPRESENTATION(#101,#98);
#97=REPRESENTATION('material name',(#99),#182);
#98=REPRESENTATION('density',(#94),#182);
#99=DESCRIPTIVE_REPRESENTATION_ITEM('NBR','NBR');
#100=PROPERTY_DEFINITION('material property','material name',#192);
#101=PROPERTY_DEFINITION('material property','density of part',#192);
#102=DATE_TIME_ROLE('creation_date');
#103=APPLIED_DATE_AND_TIME_ASSIGNMENT(#104,#102,(#192));
#104=DATE_AND_TIME(#105,#106);
#105=CALENDAR_DATE(2019,13,2);
#106=LOCAL_TIME(0,0,0.,#107);
#107=COORDINATED_UNIVERSAL_TIME_OFFSET(0,0,.BEHIND.);
#108=AXIS2_PLACEMENT_3D('placement',#155,#123,#124);
#109=AXIS2_PLACEMENT_3D('',#156,#125,#126);
#110=AXIS2_PLACEMENT_3D('',#159,#127,#128);
#111=AXIS2_PLACEMENT_3D('',#160,#129,#130);
#112=AXIS2_PLACEMENT_3D('',#162,#131,#132);
#113=AXIS2_PLACEMENT_3D('',#164,#133,#134);
#114=AXIS2_PLACEMENT_3D('',#165,#135,#136);
#115=AXIS2_PLACEMENT_3D('',#166,#137,#138);
#116=AXIS2_PLACEMENT_3D('',#170,#140,#141);
#117=AXIS2_PLACEMENT_3D('',#171,#142,#143);
#118=AXIS2_PLACEMENT_3D('',#172,#144,#145);
#119=AXIS2_PLACEMENT_3D('',#174,#146,#147);
#120=AXIS2_PLACEMENT_3D('',#176,#148,#149);
#121=AXIS2_PLACEMENT_3D('',#177,#150,#151);
#122=AXIS2_PLACEMENT_3D('',#178,#152,#153);
#123=DIRECTION('axis',(0.,0.,1.));
#124=DIRECTION('refdir',(1.,0.,0.));
#125=DIRECTION('center_axis',(1.,0.,0.));
#126=DIRECTION('ref_axis',(0.,1.48029736616688E-16,1.));
#127=DIRECTION('center_axis',(0.,0.,-1.));
#128=DIRECTION('ref_axis',(-1.,0.,0.));
#129=DIRECTION('center_axis',(0.,0.,-1.));
#130=DIRECTION('ref_axis',(-1.,0.,0.));
#131=DIRECTION('center_axis',(-1.,0.,0.));
#132=DIRECTION('ref_axis',(0.,2.3373116307898E-16,1.));
#133=DIRECTION('center_axis',(0.,1.22464679914735E-16,1.));
#134=DIRECTION('ref_axis',(-1.,0.,0.));
#135=DIRECTION('center_axis',(0.,1.22464679914735E-16,1.));
#136=DIRECTION('ref_axis',(-1.,0.,0.));
#137=DIRECTION('center_axis',(0.,-2.69144975666705E-16,1.));
#138=DIRECTION('ref_axis',(-1.,0.,0.));
#139=DIRECTION('',(0.,2.69144975666705E-16,-1.));
#140=DIRECTION('center_axis',(0.,1.22464679914735E-16,1.));
#141=DIRECTION('ref_axis',(-1.,0.,0.));
#142=DIRECTION('center_axis',(0.,1.22464679914735E-16,1.));
#143=DIRECTION('ref_axis',(-1.,0.,0.));
#144=DIRECTION('center_axis',(1.,0.,0.));
#145=DIRECTION('ref_axis',(0.,0.,-1.));
#146=DIRECTION('center_axis',(-1.,0.,0.));
#147=DIRECTION('ref_axis',(0.,0.,-1.));
#148=DIRECTION('center_axis',(0.,0.,-1.));
#149=DIRECTION('ref_axis',(-1.,0.,0.));
#150=DIRECTION('center_axis',(0.,0.,-1.));
#151=DIRECTION('ref_axis',(-1.,0.,0.));
#152=DIRECTION('center_axis',(0.,1.34572487833352E-16,-1.));
#153=DIRECTION('ref_axis',(-1.,0.,0.));
#154=DIRECTION('',(0.,-1.34572487833352E-16,1.));
#155=CARTESIAN_POINT('',(0.,0.,0.));
#156=CARTESIAN_POINT('Origin',(0.,21.5,2.63299061816681E-15));
#157=CARTESIAN_POINT('',(2.5,3.06161699786838E-16,0.));
#158=CARTESIAN_POINT('',(-3.06161699786838E-16,2.5,0.));
#159=CARTESIAN_POINT('Origin',(0.,0.,0.));
#160=CARTESIAN_POINT('Origin',(0.,0.,0.));
#161=CARTESIAN_POINT('',(-3.06161699786838E-16,40.5,3.06161699786838E-16));
#162=CARTESIAN_POINT('Origin',(-3.06161699786838E-16,21.5,2.63299061816681E-15));
#163=CARTESIAN_POINT('',(2.5,43.,0.));
#164=CARTESIAN_POINT('Origin',(0.,43.,0.));
#165=CARTESIAN_POINT('Origin',(0.,43.,0.));
#166=CARTESIAN_POINT('Origin',(0.,43.,-66.));
#167=CARTESIAN_POINT('',(2.5,43.,-66.));
#168=CARTESIAN_POINT('',(2.5,43.,-66.));
#169=CARTESIAN_POINT('',(-3.06161699786838E-16,40.5,-66.));
#170=CARTESIAN_POINT('Origin',(0.,43.,-66.));
#171=CARTESIAN_POINT('Origin',(0.,43.,-66.));
#172=CARTESIAN_POINT('Origin',(0.,21.5,-66.));
#173=CARTESIAN_POINT('',(-3.06161699786838E-16,2.50000000000001,-66.));
#174=CARTESIAN_POINT('Origin',(-3.06161699786838E-16,21.5,-66.));
#175=CARTESIAN_POINT('',(2.5,9.18794589678809E-15,-66.));
#176=CARTESIAN_POINT('Origin',(0.,8.88178419700125E-15,-66.));
#177=CARTESIAN_POINT('Origin',(0.,8.88178419700125E-15,-66.));
#178=CARTESIAN_POINT('Origin',(0.,0.,0.));
#179=CARTESIAN_POINT('',(2.5,-3.06161699786838E-16,-4.12009416196028E-32));
#180=UNCERTAINTY_MEASURE_WITH_UNIT(LENGTH_MEASURE(0.01),#184,
'DISTANCE_ACCURACY_VALUE',
'Maximum model space distance between geometric entities at asserted c
onnectivities');
#181=UNCERTAINTY_MEASURE_WITH_UNIT(LENGTH_MEASURE(0.01),#184,
'DISTANCE_ACCURACY_VALUE',
'Maximum model space distance between geometric entities at asserted c
onnectivities');
#182=(
GEOMETRIC_REPRESENTATION_CONTEXT(3)
GLOBAL_UNCERTAINTY_ASSIGNED_CONTEXT((#180))
GLOBAL_UNIT_ASSIGNED_CONTEXT((#184,#186,#187))
REPRESENTATION_CONTEXT('','3D')
);
#183=(
GEOMETRIC_REPRESENTATION_CONTEXT(3)
GLOBAL_UNCERTAINTY_ASSIGNED_CONTEXT((#181))
GLOBAL_UNIT_ASSIGNED_CONTEXT((#184,#186,#187))
REPRESENTATION_CONTEXT('','3D')
);
#184=(
LENGTH_UNIT()
NAMED_UNIT(*)
SI_UNIT(.MILLI.,.METRE.)
);
#185=(
LENGTH_UNIT()
NAMED_UNIT(*)
SI_UNIT(.CENTI.,.METRE.)
);
#186=(
NAMED_UNIT(*)
PLANE_ANGLE_UNIT()
SI_UNIT($,.RADIAN.)
);
#187=(
NAMED_UNIT(*)
SI_UNIT($,.STERADIAN.)
SOLID_ANGLE_UNIT()
);
#188=SHAPE_DEFINITION_REPRESENTATION(#189,#190);
#189=PRODUCT_DEFINITION_SHAPE('',$,#192);
#190=SHAPE_REPRESENTATION('',(#108),#182);
#191=PRODUCT_DEFINITION_CONTEXT('part definition',#196,'design');
#192=PRODUCT_DEFINITION('MTW_1-00021321','MTW_1-00021321',#193,#191);
#193=PRODUCT_DEFINITION_FORMATION('-',$,#198);
#194=PRODUCT_RELATED_PRODUCT_CATEGORY('MTW_1-00021321','MTW_1-00021321',
(#198));
#195=APPLICATION_PROTOCOL_DEFINITION('international standard',
'automotive_design',2009,#196);
#196=APPLICATION_CONTEXT(
'Core Data for Automotive Mechanical Design Process');
#197=PRODUCT_CONTEXT('part definition',#196,'mechanical');
#198=PRODUCT('MTW_1-00021321','MTW_1-00021321','O-Ring NBR, 80x5',(#197));
#199=PRESENTATION_STYLE_ASSIGNMENT((#200));
#200=SURFACE_STYLE_USAGE(.BOTH.,#203);
#201=SURFACE_STYLE_RENDERING_WITH_PROPERTIES($,#207,(#202));
#202=SURFACE_STYLE_TRANSPARENT(0.);
#203=SURFACE_SIDE_STYLE('',(#204,#201));
#204=SURFACE_STYLE_FILL_AREA(#205);
#205=FILL_AREA_STYLE('',(#206));
#206=FILL_AREA_STYLE_COLOUR('',#207);
#207=COLOUR_RGB('',0.16078431372549,0.16078431372549,0.16078431372549);
ENDSEC;
END-ISO-10303-21;
