ISO-10303-21;
HEADER;
/* Generated by software containing ST-Developer
 * from STEP Tools, Inc. (www.steptools.com) 
 */

FILE_DESCRIPTION(
/* description */ ('Wellenunterst\X\FCtzung'),
/* implementation_level */ '2;1');

FILE_NAME(
/* name */ '\\\\fileserver\\Daten2\\STEP Daten fuer PIM\\151754-0.step',

/* time_stamp */ '2021-08-16T08:29:37+02:00',
/* author */ ('Praktikum'),
/* organization */ (''),
/* preprocessor_version */ 'ST-DEVELOPER v18.1',
/* originating_system */ 'Autodesk Inventor 2021',
/* authorisation */ '');

FILE_SCHEMA (('AUTOMOTIVE_DESIGN { 1 0 10303 214 3 1 1 }'));
ENDSEC;

DATA;
#10=MECHANICAL_DESIGN_GEOMETRIC_PRESENTATION_REPRESENTATION('',(#13),#576);
#11=SHAPE_REPRESENTATION_RELATIONSHIP('SRR','None',#583,#12);
#12=ADVANCED_BREP_SHAPE_REPRESENTATION('',(#14),#575);
#13=STYLED_ITEM('',(#592),#14);
#14=MANIFOLD_SOLID_BREP('Volumenk\X\F6rper1',#350);
#15=FACE_OUTER_BOUND('',#36,.T.);
#16=FACE_OUTER_BOUND('',#37,.T.);
#17=FACE_OUTER_BOUND('',#38,.T.);
#18=FACE_OUTER_BOUND('',#39,.T.);
#19=FACE_OUTER_BOUND('',#40,.T.);
#20=FACE_OUTER_BOUND('',#41,.T.);
#21=FACE_OUTER_BOUND('',#42,.T.);
#22=FACE_OUTER_BOUND('',#43,.T.);
#23=FACE_OUTER_BOUND('',#44,.T.);
#24=FACE_OUTER_BOUND('',#45,.T.);
#25=FACE_OUTER_BOUND('',#46,.T.);
#26=FACE_OUTER_BOUND('',#47,.T.);
#27=FACE_OUTER_BOUND('',#48,.T.);
#28=FACE_OUTER_BOUND('',#49,.T.);
#29=FACE_OUTER_BOUND('',#50,.T.);
#30=FACE_OUTER_BOUND('',#51,.T.);
#31=FACE_OUTER_BOUND('',#52,.T.);
#32=FACE_OUTER_BOUND('',#53,.T.);
#33=FACE_OUTER_BOUND('',#54,.T.);
#34=FACE_OUTER_BOUND('',#55,.T.);
#35=FACE_OUTER_BOUND('',#56,.T.);
#36=EDGE_LOOP('',(#218,#219,#220));
#37=EDGE_LOOP('',(#221,#222,#223));
#38=EDGE_LOOP('',(#224,#225,#226));
#39=EDGE_LOOP('',(#227,#228,#229));
#40=EDGE_LOOP('',(#230,#231,#232,#233));
#41=EDGE_LOOP('',(#234,#235,#236,#237));
#42=EDGE_LOOP('',(#238,#239,#240,#241));
#43=EDGE_LOOP('',(#242,#243,#244,#245));
#44=EDGE_LOOP('',(#246,#247,#248,#249));
#45=EDGE_LOOP('',(#250,#251,#252,#253));
#46=EDGE_LOOP('',(#254,#255,#256,#257));
#47=EDGE_LOOP('',(#258,#259,#260,#261));
#48=EDGE_LOOP('',(#262,#263,#264,#265,#266,#267,#268));
#49=EDGE_LOOP('',(#269,#270,#271,#272));
#50=EDGE_LOOP('',(#273,#274,#275,#276,#277,#278));
#51=EDGE_LOOP('',(#279,#280,#281,#282));
#52=EDGE_LOOP('',(#283,#284,#285,#286));
#53=EDGE_LOOP('',(#287,#288,#289,#290,#291,#292));
#54=EDGE_LOOP('',(#293,#294,#295,#296));
#55=EDGE_LOOP('',(#297,#298,#299,#300));
#56=EDGE_LOOP('',(#301,#302,#303,#304,#305,#306,#307));
#57=LINE('',#484,#102);
#58=LINE('',#486,#103);
#59=LINE('',#487,#104);
#60=LINE('',#491,#105);
#61=LINE('',#493,#106);
#62=LINE('',#494,#107);
#63=LINE('',#498,#108);
#64=LINE('',#500,#109);
#65=LINE('',#501,#110);
#66=LINE('',#505,#111);
#67=LINE('',#507,#112);
#68=LINE('',#508,#113);
#69=LINE('',#510,#114);
#70=LINE('',#511,#115);
#71=LINE('',#513,#116);
#72=LINE('',#514,#117);
#73=LINE('',#518,#118);
#74=LINE('',#519,#119);
#75=LINE('',#520,#120);
#76=LINE('',#522,#121);
#77=LINE('',#523,#122);
#78=LINE('',#527,#123);
#79=LINE('',#528,#124);
#80=LINE('',#529,#125);
#81=LINE('',#531,#126);
#82=LINE('',#532,#127);
#83=LINE('',#536,#128);
#84=LINE('',#537,#129);
#85=LINE('',#538,#130);
#86=LINE('',#542,#131);
#87=LINE('',#543,#132);
#88=LINE('',#544,#133);
#89=LINE('',#547,#134);
#90=LINE('',#549,#135);
#91=LINE('',#551,#136);
#92=LINE('',#552,#137);
#93=LINE('',#554,#138);
#94=LINE('',#557,#139);
#95=LINE('',#558,#140);
#96=LINE('',#561,#141);
#97=LINE('',#564,#142);
#98=LINE('',#565,#143);
#99=LINE('',#568,#144);
#100=LINE('',#569,#145);
#101=LINE('',#571,#146);
#102=VECTOR('',#395,10.);
#103=VECTOR('',#396,10.);
#104=VECTOR('',#397,10.);
#105=VECTOR('',#400,10.);
#106=VECTOR('',#401,10.);
#107=VECTOR('',#402,10.);
#108=VECTOR('',#405,10.);
#109=VECTOR('',#406,10.);
#110=VECTOR('',#407,10.);
#111=VECTOR('',#410,10.);
#112=VECTOR('',#411,10.);
#113=VECTOR('',#412,10.);
#114=VECTOR('',#415,10.);
#115=VECTOR('',#416,10.);
#116=VECTOR('',#419,10.);
#117=VECTOR('',#420,10.);
#118=VECTOR('',#423,10.);
#119=VECTOR('',#424,10.);
#120=VECTOR('',#425,10.);
#121=VECTOR('',#428,10.);
#122=VECTOR('',#429,10.);
#123=VECTOR('',#432,10.);
#124=VECTOR('',#433,10.);
#125=VECTOR('',#434,10.);
#126=VECTOR('',#437,10.);
#127=VECTOR('',#438,10.);
#128=VECTOR('',#441,10.);
#129=VECTOR('',#442,10.);
#130=VECTOR('',#443,10.);
#131=VECTOR('',#446,10.);
#132=VECTOR('',#447,10.);
#133=VECTOR('',#448,10.);
#134=VECTOR('',#451,10.);
#135=VECTOR('',#452,10.);
#136=VECTOR('',#453,10.);
#137=VECTOR('',#454,10.);
#138=VECTOR('',#457,10.);
#139=VECTOR('',#460,10.);
#140=VECTOR('',#461,10.);
#141=VECTOR('',#466,10.);
#142=VECTOR('',#469,10.);
#143=VECTOR('',#470,10.);
#144=VECTOR('',#473,10.);
#145=VECTOR('',#474,10.);
#146=VECTOR('',#477,10.);
#147=VERTEX_POINT('',#482);
#148=VERTEX_POINT('',#483);
#149=VERTEX_POINT('',#485);
#150=VERTEX_POINT('',#489);
#151=VERTEX_POINT('',#490);
#152=VERTEX_POINT('',#492);
#153=VERTEX_POINT('',#496);
#154=VERTEX_POINT('',#497);
#155=VERTEX_POINT('',#499);
#156=VERTEX_POINT('',#503);
#157=VERTEX_POINT('',#504);
#158=VERTEX_POINT('',#506);
#159=VERTEX_POINT('',#516);
#160=VERTEX_POINT('',#517);
#161=VERTEX_POINT('',#525);
#162=VERTEX_POINT('',#526);
#163=VERTEX_POINT('',#534);
#164=VERTEX_POINT('',#535);
#165=VERTEX_POINT('',#540);
#166=VERTEX_POINT('',#541);
#167=VERTEX_POINT('',#546);
#168=VERTEX_POINT('',#548);
#169=VERTEX_POINT('',#550);
#170=VERTEX_POINT('',#556);
#171=VERTEX_POINT('',#563);
#172=VERTEX_POINT('',#567);
#173=EDGE_CURVE('',#147,#148,#57,.T.);
#174=EDGE_CURVE('',#149,#148,#58,.T.);
#175=EDGE_CURVE('',#149,#147,#59,.T.);
#176=EDGE_CURVE('',#150,#151,#60,.T.);
#177=EDGE_CURVE('',#152,#151,#61,.T.);
#178=EDGE_CURVE('',#152,#150,#62,.T.);
#179=EDGE_CURVE('',#153,#154,#63,.T.);
#180=EDGE_CURVE('',#155,#154,#64,.T.);
#181=EDGE_CURVE('',#155,#153,#65,.T.);
#182=EDGE_CURVE('',#156,#157,#66,.T.);
#183=EDGE_CURVE('',#158,#157,#67,.T.);
#184=EDGE_CURVE('',#158,#156,#68,.T.);
#185=EDGE_CURVE('',#154,#158,#69,.T.);
#186=EDGE_CURVE('',#157,#155,#70,.T.);
#187=EDGE_CURVE('',#158,#152,#71,.T.);
#188=EDGE_CURVE('',#151,#156,#72,.T.);
#189=EDGE_CURVE('',#159,#160,#73,.T.);
#190=EDGE_CURVE('',#160,#157,#74,.T.);
#191=EDGE_CURVE('',#156,#159,#75,.T.);
#192=EDGE_CURVE('',#153,#149,#76,.T.);
#193=EDGE_CURVE('',#148,#154,#77,.T.);
#194=EDGE_CURVE('',#161,#162,#78,.T.);
#195=EDGE_CURVE('',#162,#153,#79,.T.);
#196=EDGE_CURVE('',#155,#161,#80,.T.);
#197=EDGE_CURVE('',#152,#148,#81,.T.);
#198=EDGE_CURVE('',#147,#150,#82,.T.);
#199=EDGE_CURVE('',#163,#164,#83,.T.);
#200=EDGE_CURVE('',#164,#151,#84,.T.);
#201=EDGE_CURVE('',#150,#163,#85,.T.);
#202=EDGE_CURVE('',#165,#166,#86,.T.);
#203=EDGE_CURVE('',#166,#147,#87,.T.);
#204=EDGE_CURVE('',#149,#165,#88,.T.);
#205=EDGE_CURVE('',#167,#160,#89,.T.);
#206=EDGE_CURVE('',#168,#167,#90,.T.);
#207=EDGE_CURVE('',#169,#168,#91,.T.);
#208=EDGE_CURVE('',#161,#169,#92,.T.);
#209=EDGE_CURVE('',#164,#159,#93,.T.);
#210=EDGE_CURVE('',#163,#170,#94,.T.);
#211=EDGE_CURVE('',#170,#167,#95,.T.);
#212=EDGE_CURVE('',#165,#162,#96,.T.);
#213=EDGE_CURVE('',#171,#169,#97,.T.);
#214=EDGE_CURVE('',#171,#166,#98,.T.);
#215=EDGE_CURVE('',#172,#168,#99,.T.);
#216=EDGE_CURVE('',#172,#171,#100,.T.);
#217=EDGE_CURVE('',#170,#172,#101,.T.);
#218=ORIENTED_EDGE('',*,*,#173,.T.);
#219=ORIENTED_EDGE('',*,*,#174,.F.);
#220=ORIENTED_EDGE('',*,*,#175,.T.);
#221=ORIENTED_EDGE('',*,*,#176,.T.);
#222=ORIENTED_EDGE('',*,*,#177,.F.);
#223=ORIENTED_EDGE('',*,*,#178,.T.);
#224=ORIENTED_EDGE('',*,*,#179,.T.);
#225=ORIENTED_EDGE('',*,*,#180,.F.);
#226=ORIENTED_EDGE('',*,*,#181,.T.);
#227=ORIENTED_EDGE('',*,*,#182,.T.);
#228=ORIENTED_EDGE('',*,*,#183,.F.);
#229=ORIENTED_EDGE('',*,*,#184,.T.);
#230=ORIENTED_EDGE('',*,*,#180,.T.);
#231=ORIENTED_EDGE('',*,*,#185,.T.);
#232=ORIENTED_EDGE('',*,*,#183,.T.);
#233=ORIENTED_EDGE('',*,*,#186,.T.);
#234=ORIENTED_EDGE('',*,*,#184,.F.);
#235=ORIENTED_EDGE('',*,*,#187,.T.);
#236=ORIENTED_EDGE('',*,*,#177,.T.);
#237=ORIENTED_EDGE('',*,*,#188,.T.);
#238=ORIENTED_EDGE('',*,*,#189,.T.);
#239=ORIENTED_EDGE('',*,*,#190,.T.);
#240=ORIENTED_EDGE('',*,*,#182,.F.);
#241=ORIENTED_EDGE('',*,*,#191,.T.);
#242=ORIENTED_EDGE('',*,*,#179,.F.);
#243=ORIENTED_EDGE('',*,*,#192,.T.);
#244=ORIENTED_EDGE('',*,*,#174,.T.);
#245=ORIENTED_EDGE('',*,*,#193,.T.);
#246=ORIENTED_EDGE('',*,*,#194,.T.);
#247=ORIENTED_EDGE('',*,*,#195,.T.);
#248=ORIENTED_EDGE('',*,*,#181,.F.);
#249=ORIENTED_EDGE('',*,*,#196,.T.);
#250=ORIENTED_EDGE('',*,*,#178,.F.);
#251=ORIENTED_EDGE('',*,*,#197,.T.);
#252=ORIENTED_EDGE('',*,*,#173,.F.);
#253=ORIENTED_EDGE('',*,*,#198,.T.);
#254=ORIENTED_EDGE('',*,*,#199,.T.);
#255=ORIENTED_EDGE('',*,*,#200,.T.);
#256=ORIENTED_EDGE('',*,*,#176,.F.);
#257=ORIENTED_EDGE('',*,*,#201,.T.);
#258=ORIENTED_EDGE('',*,*,#202,.T.);
#259=ORIENTED_EDGE('',*,*,#203,.T.);
#260=ORIENTED_EDGE('',*,*,#175,.F.);
#261=ORIENTED_EDGE('',*,*,#204,.T.);
#262=ORIENTED_EDGE('',*,*,#196,.F.);
#263=ORIENTED_EDGE('',*,*,#186,.F.);
#264=ORIENTED_EDGE('',*,*,#190,.F.);
#265=ORIENTED_EDGE('',*,*,#205,.F.);
#266=ORIENTED_EDGE('',*,*,#206,.F.);
#267=ORIENTED_EDGE('',*,*,#207,.F.);
#268=ORIENTED_EDGE('',*,*,#208,.F.);
#269=ORIENTED_EDGE('',*,*,#191,.F.);
#270=ORIENTED_EDGE('',*,*,#188,.F.);
#271=ORIENTED_EDGE('',*,*,#200,.F.);
#272=ORIENTED_EDGE('',*,*,#209,.T.);
#273=ORIENTED_EDGE('',*,*,#189,.F.);
#274=ORIENTED_EDGE('',*,*,#209,.F.);
#275=ORIENTED_EDGE('',*,*,#199,.F.);
#276=ORIENTED_EDGE('',*,*,#210,.T.);
#277=ORIENTED_EDGE('',*,*,#211,.T.);
#278=ORIENTED_EDGE('',*,*,#205,.T.);
#279=ORIENTED_EDGE('',*,*,#185,.F.);
#280=ORIENTED_EDGE('',*,*,#193,.F.);
#281=ORIENTED_EDGE('',*,*,#197,.F.);
#282=ORIENTED_EDGE('',*,*,#187,.F.);
#283=ORIENTED_EDGE('',*,*,#195,.F.);
#284=ORIENTED_EDGE('',*,*,#212,.F.);
#285=ORIENTED_EDGE('',*,*,#204,.F.);
#286=ORIENTED_EDGE('',*,*,#192,.F.);
#287=ORIENTED_EDGE('',*,*,#194,.F.);
#288=ORIENTED_EDGE('',*,*,#208,.T.);
#289=ORIENTED_EDGE('',*,*,#213,.F.);
#290=ORIENTED_EDGE('',*,*,#214,.T.);
#291=ORIENTED_EDGE('',*,*,#202,.F.);
#292=ORIENTED_EDGE('',*,*,#212,.T.);
#293=ORIENTED_EDGE('',*,*,#207,.T.);
#294=ORIENTED_EDGE('',*,*,#215,.F.);
#295=ORIENTED_EDGE('',*,*,#216,.T.);
#296=ORIENTED_EDGE('',*,*,#213,.T.);
#297=ORIENTED_EDGE('',*,*,#206,.T.);
#298=ORIENTED_EDGE('',*,*,#211,.F.);
#299=ORIENTED_EDGE('',*,*,#217,.T.);
#300=ORIENTED_EDGE('',*,*,#215,.T.);
#301=ORIENTED_EDGE('',*,*,#203,.F.);
#302=ORIENTED_EDGE('',*,*,#214,.F.);
#303=ORIENTED_EDGE('',*,*,#216,.F.);
#304=ORIENTED_EDGE('',*,*,#217,.F.);
#305=ORIENTED_EDGE('',*,*,#210,.F.);
#306=ORIENTED_EDGE('',*,*,#201,.F.);
#307=ORIENTED_EDGE('',*,*,#198,.F.);
#308=PLANE('',#370);
#309=PLANE('',#371);
#310=PLANE('',#372);
#311=PLANE('',#373);
#312=PLANE('',#374);
#313=PLANE('',#375);
#314=PLANE('',#376);
#315=PLANE('',#377);
#316=PLANE('',#378);
#317=PLANE('',#379);
#318=PLANE('',#380);
#319=PLANE('',#381);
#320=PLANE('',#382);
#321=PLANE('',#383);
#322=PLANE('',#384);
#323=PLANE('',#385);
#324=PLANE('',#386);
#325=PLANE('',#387);
#326=PLANE('',#388);
#327=PLANE('',#389);
#328=PLANE('',#390);
#329=ADVANCED_FACE('',(#15),#308,.T.);
#330=ADVANCED_FACE('',(#16),#309,.T.);
#331=ADVANCED_FACE('',(#17),#310,.T.);
#332=ADVANCED_FACE('',(#18),#311,.T.);
#333=ADVANCED_FACE('',(#19),#312,.T.);
#334=ADVANCED_FACE('',(#20),#313,.T.);
#335=ADVANCED_FACE('',(#21),#314,.T.);
#336=ADVANCED_FACE('',(#22),#315,.T.);
#337=ADVANCED_FACE('',(#23),#316,.T.);
#338=ADVANCED_FACE('',(#24),#317,.T.);
#339=ADVANCED_FACE('',(#25),#318,.T.);
#340=ADVANCED_FACE('',(#26),#319,.T.);
#341=ADVANCED_FACE('',(#27),#320,.T.);
#342=ADVANCED_FACE('',(#28),#321,.T.);
#343=ADVANCED_FACE('',(#29),#322,.T.);
#344=ADVANCED_FACE('',(#30),#323,.T.);
#345=ADVANCED_FACE('',(#31),#324,.T.);
#346=ADVANCED_FACE('',(#32),#325,.T.);
#347=ADVANCED_FACE('',(#33),#326,.T.);
#348=ADVANCED_FACE('',(#34),#327,.T.);
#349=ADVANCED_FACE('',(#35),#328,.F.);
#350=CLOSED_SHELL('',(#329,#330,#331,#332,#333,#334,#335,#336,#337,#338,
#339,#340,#341,#342,#343,#344,#345,#346,#347,#348,#349));
#351=DERIVED_UNIT_ELEMENT(#353,1.);
#352=DERIVED_UNIT_ELEMENT(#578,-3.);
#353=(
MASS_UNIT()
NAMED_UNIT(*)
SI_UNIT($,.GRAM.)
);
#354=DERIVED_UNIT((#351,#352));
#355=MEASURE_REPRESENTATION_ITEM('density measure',
POSITIVE_RATIO_MEASURE(2.75),#354);
#356=PROPERTY_DEFINITION_REPRESENTATION(#361,#358);
#357=PROPERTY_DEFINITION_REPRESENTATION(#362,#359);
#358=REPRESENTATION('material name',(#360),#575);
#359=REPRESENTATION('density',(#355),#575);
#360=DESCRIPTIVE_REPRESENTATION_ITEM('Al Mg Si 0,7 F26',
'Al Mg Si 0,7 F26');
#361=PROPERTY_DEFINITION('material property','material name',#585);
#362=PROPERTY_DEFINITION('material property','density of part',#585);
#363=DATE_TIME_ROLE('creation_date');
#364=APPLIED_DATE_AND_TIME_ASSIGNMENT(#365,#363,(#585));
#365=DATE_AND_TIME(#366,#367);
#366=CALENDAR_DATE(2009,5,5);
#367=LOCAL_TIME(0,0,0.,#368);
#368=COORDINATED_UNIVERSAL_TIME_OFFSET(0,0,.BEHIND.);
#369=AXIS2_PLACEMENT_3D('placement',#480,#391,#392);
#370=AXIS2_PLACEMENT_3D('',#481,#393,#394);
#371=AXIS2_PLACEMENT_3D('',#488,#398,#399);
#372=AXIS2_PLACEMENT_3D('',#495,#403,#404);
#373=AXIS2_PLACEMENT_3D('',#502,#408,#409);
#374=AXIS2_PLACEMENT_3D('',#509,#413,#414);
#375=AXIS2_PLACEMENT_3D('',#512,#417,#418);
#376=AXIS2_PLACEMENT_3D('',#515,#421,#422);
#377=AXIS2_PLACEMENT_3D('',#521,#426,#427);
#378=AXIS2_PLACEMENT_3D('',#524,#430,#431);
#379=AXIS2_PLACEMENT_3D('',#530,#435,#436);
#380=AXIS2_PLACEMENT_3D('',#533,#439,#440);
#381=AXIS2_PLACEMENT_3D('',#539,#444,#445);
#382=AXIS2_PLACEMENT_3D('',#545,#449,#450);
#383=AXIS2_PLACEMENT_3D('',#553,#455,#456);
#384=AXIS2_PLACEMENT_3D('',#555,#458,#459);
#385=AXIS2_PLACEMENT_3D('',#559,#462,#463);
#386=AXIS2_PLACEMENT_3D('',#560,#464,#465);
#387=AXIS2_PLACEMENT_3D('',#562,#467,#468);
#388=AXIS2_PLACEMENT_3D('',#566,#471,#472);
#389=AXIS2_PLACEMENT_3D('',#570,#475,#476);
#390=AXIS2_PLACEMENT_3D('',#572,#478,#479);
#391=DIRECTION('axis',(0.,0.,1.));
#392=DIRECTION('refdir',(1.,0.,0.));
#393=DIRECTION('center_axis',(-0.577350269189623,-0.577350269189623,-0.577350269189631));
#394=DIRECTION('ref_axis',(-0.707106781186553,0.,0.707106781186543));
#395=DIRECTION('',(-6.28036983473508E-15,-0.707106781186549,0.707106781186546));
#396=DIRECTION('',(0.707106781186548,-0.707106781186548,0.));
#397=DIRECTION('',(0.707106781186549,6.28036983473508E-15,-0.707106781186546));
#398=DIRECTION('center_axis',(0.577350269189619,-0.577350269189627,-0.577350269189632));
#399=DIRECTION('ref_axis',(-0.707106781186556,0.,-0.707106781186539));
#400=DIRECTION('',(0.707106781186549,-1.25607396694702E-14,0.707106781186546));
#401=DIRECTION('',(0.707106781186552,0.707106781186543,0.));
#402=DIRECTION('',(-3.14018491736754E-15,0.707106781186549,-0.707106781186546));
#403=DIRECTION('center_axis',(-0.577350269189614,-0.577350269189614,0.57735026918965));
#404=DIRECTION('ref_axis',(0.70710678118657,0.,0.707106781186525));
#405=DIRECTION('',(0.707106781186548,-0.707106781186548,0.));
#406=DIRECTION('',(0.,-0.707106781186569,-0.707106781186526));
#407=DIRECTION('',(-0.707106781186566,-6.28036983473529E-15,-0.707106781186529));
#408=DIRECTION('center_axis',(0.577350269189609,-0.577350269189616,0.577350269189652));
#409=DIRECTION('ref_axis',(0.707106781186574,0.,-0.707106781186521));
#410=DIRECTION('',(-0.707106781186568,1.25607396694706E-14,0.707106781186527));
#411=DIRECTION('',(0.,0.707106781186569,0.707106781186526));
#412=DIRECTION('',(0.707106781186552,0.707106781186543,0.));
#413=DIRECTION('center_axis',(0.,-0.707106781186526,0.70710678118657));
#414=DIRECTION('ref_axis',(1.,0.,0.));
#415=DIRECTION('',(1.,0.,0.));
#416=DIRECTION('',(-1.,0.,0.));
#417=DIRECTION('center_axis',(0.707106781186543,-0.707106781186552,0.));
#418=DIRECTION('ref_axis',(0.,0.,-1.));
#419=DIRECTION('',(0.,0.,-1.));
#420=DIRECTION('',(0.,0.,1.));
#421=DIRECTION('center_axis',(0.707106781186527,-2.79075206018132E-16,0.707106781186568));
#422=DIRECTION('ref_axis',(0.707106781186568,0.,-0.707106781186527));
#423=DIRECTION('',(-0.389281620635028,0.834817129478995,0.389281620635006));
#424=DIRECTION('',(-3.94671941272919E-16,-1.,0.));
#425=DIRECTION('',(3.94671941272919E-16,1.,0.));
#426=DIRECTION('center_axis',(-0.707106781186548,-0.707106781186548,0.));
#427=DIRECTION('ref_axis',(0.,0.,1.));
#428=DIRECTION('',(0.,0.,-1.));
#429=DIRECTION('',(0.,0.,1.));
#430=DIRECTION('center_axis',(-0.707106781186526,-2.79075206018131E-16,
0.70710678118657));
#431=DIRECTION('ref_axis',(0.707106781186569,0.,0.707106781186525));
#432=DIRECTION('',(-0.389281620635028,-0.834817129478995,-0.389281620635005));
#433=DIRECTION('',(3.94671941272919E-16,-1.,0.));
#434=DIRECTION('',(-3.94671941272919E-16,1.,0.));
#435=DIRECTION('center_axis',(0.,-0.707106781186546,-0.707106781186549));
#436=DIRECTION('ref_axis',(-1.,0.,0.));
#437=DIRECTION('',(-1.,0.,0.));
#438=DIRECTION('',(1.,0.,0.));
#439=DIRECTION('center_axis',(0.707106781186547,-2.7907520601814E-16,-0.707106781186548));
#440=DIRECTION('ref_axis',(-0.707106781186548,0.,-0.707106781186547));
#441=DIRECTION('',(0.389281620635025,-0.834817129478988,0.389281620635025));
#442=DIRECTION('',(-3.94671941272919E-16,-1.,0.));
#443=DIRECTION('',(3.94671941272919E-16,1.,0.));
#444=DIRECTION('center_axis',(-0.707106781186546,-2.79075206018139E-16,
-0.707106781186549));
#445=DIRECTION('ref_axis',(-0.707106781186549,0.,0.707106781186546));
#446=DIRECTION('',(0.389281620635025,0.834817129478988,-0.389281620635023));
#447=DIRECTION('',(3.94671941272919E-16,-1.,0.));
#448=DIRECTION('',(-3.94671941272919E-16,1.,0.));
#449=DIRECTION('center_axis',(0.,0.,1.));
#450=DIRECTION('ref_axis',(1.,0.,0.));
#451=DIRECTION('',(0.422618261740699,-0.90630778703665,0.));
#452=DIRECTION('',(0.953716950748227,0.300705799504273,0.));
#453=DIRECTION('',(0.953716950748227,-0.300705799504273,0.));
#454=DIRECTION('',(0.422618261740699,0.90630778703665,0.));
#455=DIRECTION('center_axis',(1.,-3.94671941272919E-16,0.));
#456=DIRECTION('ref_axis',(0.,0.,-1.));
#457=DIRECTION('',(0.,0.,1.));
#458=DIRECTION('center_axis',(0.90630778703665,0.422618261740699,0.));
#459=DIRECTION('ref_axis',(0.,0.,-1.));
#460=DIRECTION('',(-0.422618261740699,0.90630778703665,0.));
#461=DIRECTION('',(0.,0.,1.));
#462=DIRECTION('center_axis',(0.,-1.,0.));
#463=DIRECTION('ref_axis',(0.,0.,-1.));
#464=DIRECTION('center_axis',(-1.,-3.94671941272919E-16,0.));
#465=DIRECTION('ref_axis',(0.,0.,1.));
#466=DIRECTION('',(0.,0.,1.));
#467=DIRECTION('center_axis',(-0.90630778703665,0.422618261740699,0.));
#468=DIRECTION('ref_axis',(0.,0.,1.));
#469=DIRECTION('',(0.,0.,1.));
#470=DIRECTION('',(-0.422618261740699,-0.90630778703665,0.));
#471=DIRECTION('center_axis',(0.300705799504273,0.953716950748227,0.));
#472=DIRECTION('ref_axis',(0.,0.,1.));
#473=DIRECTION('',(0.,0.,1.));
#474=DIRECTION('',(-0.953716950748227,0.300705799504273,0.));
#475=DIRECTION('center_axis',(-0.300705799504273,0.953716950748227,0.));
#476=DIRECTION('ref_axis',(0.,0.,1.));
#477=DIRECTION('',(-0.953716950748227,-0.300705799504273,0.));
#478=DIRECTION('center_axis',(0.,0.,1.));
#479=DIRECTION('ref_axis',(1.,0.,0.));
#480=CARTESIAN_POINT('',(0.,0.,0.));
#481=CARTESIAN_POINT('Origin',(-17.,-35.25,0.25));
#482=CARTESIAN_POINT('',(-17.,-35.,0.));
#483=CARTESIAN_POINT('',(-17.,-35.5,0.5));
#484=CARTESIAN_POINT('',(-17.,-35.25,0.25));
#485=CARTESIAN_POINT('',(-17.5,-35.,0.5));
#486=CARTESIAN_POINT('',(-17.5,-35.,0.5));
#487=CARTESIAN_POINT('',(-17.25,-35.,0.25));
#488=CARTESIAN_POINT('Origin',(17.,-35.25,0.25));
#489=CARTESIAN_POINT('',(17.,-35.,0.));
#490=CARTESIAN_POINT('',(17.5,-35.,0.5));
#491=CARTESIAN_POINT('',(17.25,-35.,0.25));
#492=CARTESIAN_POINT('',(17.,-35.5,0.5));
#493=CARTESIAN_POINT('',(17.,-35.5,0.5));
#494=CARTESIAN_POINT('',(17.,-35.25,0.25));
#495=CARTESIAN_POINT('Origin',(-17.25,-35.25,599.));
#496=CARTESIAN_POINT('',(-17.5,-35.,599.));
#497=CARTESIAN_POINT('',(-17.,-35.5,599.));
#498=CARTESIAN_POINT('',(-17.25,-35.25,599.));
#499=CARTESIAN_POINT('',(-17.,-35.,599.5));
#500=CARTESIAN_POINT('',(-17.,-35.,599.5));
#501=CARTESIAN_POINT('',(-17.25,-35.,599.25));
#502=CARTESIAN_POINT('Origin',(17.25,-35.25,599.));
#503=CARTESIAN_POINT('',(17.5,-35.,599.));
#504=CARTESIAN_POINT('',(17.,-35.,599.5));
#505=CARTESIAN_POINT('',(17.25,-35.,599.25));
#506=CARTESIAN_POINT('',(17.,-35.5,599.));
#507=CARTESIAN_POINT('',(17.,-35.5,599.));
#508=CARTESIAN_POINT('',(17.25,-35.25,599.));
#509=CARTESIAN_POINT('Origin',(8.75,-35.25,599.25));
#510=CARTESIAN_POINT('',(8.75,-35.5,599.));
#511=CARTESIAN_POINT('',(8.75,-35.,599.5));
#512=CARTESIAN_POINT('Origin',(17.25,-35.25,0.));
#513=CARTESIAN_POINT('',(17.,-35.5,0.));
#514=CARTESIAN_POINT('',(17.5,-35.,0.));
#515=CARTESIAN_POINT('Origin',(17.25,-27.9123619332103,599.25));
#516=CARTESIAN_POINT('',(17.5,-29.8739449982464,599.));
#517=CARTESIAN_POINT('',(17.,-28.8016915379916,599.5));
#518=CARTESIAN_POINT('',(59.1358230175873,-119.162255600574,557.364176982415));
#519=CARTESIAN_POINT('',(17.,-27.9123619332103,599.5));
#520=CARTESIAN_POINT('',(17.5,-27.9123619332103,599.));
#521=CARTESIAN_POINT('Origin',(-17.25,-35.25,0.));
#522=CARTESIAN_POINT('',(-17.5,-35.,0.));
#523=CARTESIAN_POINT('',(-17.,-35.5,0.));
#524=CARTESIAN_POINT('Origin',(-17.25,-30.7253894340871,599.25));
#525=CARTESIAN_POINT('',(-17.,-28.8016915379916,599.5));
#526=CARTESIAN_POINT('',(-17.5,-29.8739449982464,599.));
#527=CARTESIAN_POINT('',(-62.9867496799431,-127.42059447837,553.51325032006));
#528=CARTESIAN_POINT('',(-17.5,-30.7253894340871,599.));
#529=CARTESIAN_POINT('',(-17.,-30.7253894340871,599.5));
#530=CARTESIAN_POINT('Origin',(8.75,-35.25,0.25));
#531=CARTESIAN_POINT('',(8.75,-35.5,0.5));
#532=CARTESIAN_POINT('',(8.75,-35.,0.));
#533=CARTESIAN_POINT('Origin',(17.25,-27.9123619332103,0.25));
#534=CARTESIAN_POINT('',(17.,-28.8016915379916,0.));
#535=CARTESIAN_POINT('',(17.5,-29.8739449982464,0.5));
#536=CARTESIAN_POINT('',(13.7116540133608,-21.7498108126139,-3.28834598663925));
#537=CARTESIAN_POINT('',(17.5,-27.9123619332103,0.5));
#538=CARTESIAN_POINT('',(17.,-27.9123619332103,0.));
#539=CARTESIAN_POINT('Origin',(-17.25,-30.7253894340871,0.25));
#540=CARTESIAN_POINT('',(-17.5,-29.8739449982464,0.5));
#541=CARTESIAN_POINT('',(-17.,-28.8016915379916,0.));
#542=CARTESIAN_POINT('',(-17.5625806757166,-30.0081496904109,0.562580675716643));
#543=CARTESIAN_POINT('',(-17.,-30.7253894340871,0.));
#544=CARTESIAN_POINT('',(-17.5,-30.7253894340871,0.5));
#545=CARTESIAN_POINT('Origin',(-5.55111512312578E-16,-25.9507788681743,
599.5));
#546=CARTESIAN_POINT('',(9.5,-12.7178896341699,599.5));
#547=CARTESIAN_POINT('',(17.5,-29.8739449982464,599.5));
#548=CARTESIAN_POINT('',(-2.50804446646005E-17,-15.7132281285203,599.5));
#549=CARTESIAN_POINT('',(9.5,-12.7178896341699,599.5));
#550=CARTESIAN_POINT('',(-9.5,-12.7178896341699,599.5));
#551=CARTESIAN_POINT('',(-2.50804446646005E-17,-15.7132281285203,599.5));
#552=CARTESIAN_POINT('',(-9.5,-12.7178896341699,599.5));
#553=CARTESIAN_POINT('Origin',(17.5,-29.8739449982464,0.));
#554=CARTESIAN_POINT('',(17.5,-29.8739449982464,0.));
#555=CARTESIAN_POINT('Origin',(9.5,-12.7178896341699,0.));
#556=CARTESIAN_POINT('',(9.5,-12.7178896341699,0.));
#557=CARTESIAN_POINT('',(17.5,-29.8739449982464,0.));
#558=CARTESIAN_POINT('',(9.5,-12.7178896341699,0.));
#559=CARTESIAN_POINT('Origin',(17.5,-35.5,0.));
#560=CARTESIAN_POINT('Origin',(-17.5,-35.5,0.));
#561=CARTESIAN_POINT('',(-17.5,-29.8739449982464,0.));
#562=CARTESIAN_POINT('Origin',(-17.5,-29.8739449982464,0.));
#563=CARTESIAN_POINT('',(-9.5,-12.7178896341699,0.));
#564=CARTESIAN_POINT('',(-9.5,-12.7178896341699,0.));
#565=CARTESIAN_POINT('',(-9.5,-12.7178896341699,0.));
#566=CARTESIAN_POINT('Origin',(-9.5,-12.7178896341699,0.));
#567=CARTESIAN_POINT('',(-2.50804446646005E-17,-15.7132281285203,0.));
#568=CARTESIAN_POINT('',(-2.50804446646005E-17,-15.7132281285203,0.));
#569=CARTESIAN_POINT('',(-2.50804446646005E-17,-15.7132281285203,0.));
#570=CARTESIAN_POINT('Origin',(-2.50804446646005E-17,-15.7132281285203,
0.));
#571=CARTESIAN_POINT('',(9.5,-12.7178896341699,0.));
#572=CARTESIAN_POINT('Origin',(-8.32667268468867E-16,-25.9507788681743,
0.));
#573=UNCERTAINTY_MEASURE_WITH_UNIT(LENGTH_MEASURE(0.01),#577,
'DISTANCE_ACCURACY_VALUE',
'Maximum model space distance between geometric entities at asserted c
onnectivities');
#574=UNCERTAINTY_MEASURE_WITH_UNIT(LENGTH_MEASURE(0.01),#577,
'DISTANCE_ACCURACY_VALUE',
'Maximum model space distance between geometric entities at asserted c
onnectivities');
#575=(
GEOMETRIC_REPRESENTATION_CONTEXT(3)
GLOBAL_UNCERTAINTY_ASSIGNED_CONTEXT((#573))
GLOBAL_UNIT_ASSIGNED_CONTEXT((#577,#579,#580))
REPRESENTATION_CONTEXT('','3D')
);
#576=(
GEOMETRIC_REPRESENTATION_CONTEXT(3)
GLOBAL_UNCERTAINTY_ASSIGNED_CONTEXT((#574))
GLOBAL_UNIT_ASSIGNED_CONTEXT((#577,#579,#580))
REPRESENTATION_CONTEXT('','3D')
);
#577=(
LENGTH_UNIT()
NAMED_UNIT(*)
SI_UNIT(.MILLI.,.METRE.)
);
#578=(
LENGTH_UNIT()
NAMED_UNIT(*)
SI_UNIT(.CENTI.,.METRE.)
);
#579=(
NAMED_UNIT(*)
PLANE_ANGLE_UNIT()
SI_UNIT($,.RADIAN.)
);
#580=(
NAMED_UNIT(*)
SI_UNIT($,.STERADIAN.)
SOLID_ANGLE_UNIT()
);
#581=SHAPE_DEFINITION_REPRESENTATION(#582,#583);
#582=PRODUCT_DEFINITION_SHAPE('',$,#585);
#583=SHAPE_REPRESENTATION('',(#369),#575);
#584=PRODUCT_DEFINITION_CONTEXT('part definition',#589,'design');
#585=PRODUCT_DEFINITION('15-1754-0FZ.000','00011731',#586,#584);
#586=PRODUCT_DEFINITION_FORMATION('',$,#591);
#587=PRODUCT_RELATED_PRODUCT_CATEGORY('00011731','00011731',(#591));
#588=APPLICATION_PROTOCOL_DEFINITION('international standard',
'automotive_design',2009,#589);
#589=APPLICATION_CONTEXT(
'Core Data for Automotive Mechanical Design Process');
#590=PRODUCT_CONTEXT('part definition',#589,'mechanical');
#591=PRODUCT('15-1754-0FZ.000','00011731','Wellenunterst\X\FCtzung',(#590));
#592=PRESENTATION_STYLE_ASSIGNMENT((#593));
#593=SURFACE_STYLE_USAGE(.BOTH.,#596);
#594=SURFACE_STYLE_RENDERING_WITH_PROPERTIES($,#600,(#595));
#595=SURFACE_STYLE_TRANSPARENT(0.);
#596=SURFACE_SIDE_STYLE('',(#597,#594));
#597=SURFACE_STYLE_FILL_AREA(#598);
#598=FILL_AREA_STYLE('',(#599));
#599=FILL_AREA_STYLE_COLOUR('',#600);
#600=COLOUR_RGB('',0.811764705882353,0.8,0.823529411764706);
ENDSEC;
END-ISO-10303-21;
