ISO-10303-21;
HEADER;
/* Generated by software containing ST-Developer
 * from STEP Tools, Inc. (www.steptools.com) 
 */

FILE_DESCRIPTION(
/* description */ ('niedrige Baureihe'),
/* implementation_level */ '2;1');

FILE_NAME(
/* name */ '\\\\fileserver\\Daten2\\STEP Daten fuer PIM\\150009-0.step',

/* time_stamp */ '2021-08-11T14:57:01+02:00',
/* author */ ('Praktikum'),
/* organization */ (''),
/* preprocessor_version */ 'ST-DEVELOPER v18.1',
/* originating_system */ 'Autodesk Inventor 2021',
/* authorisation */ '');

FILE_SCHEMA (('AUTOMOTIVE_DESIGN { 1 0 10303 214 3 1 1 }'));
ENDSEC;

DATA;
#10=MECHANICAL_DESIGN_GEOMETRIC_PRESENTATION_REPRESENTATION('',(#13),#486);
#11=SHAPE_REPRESENTATION_RELATIONSHIP('SRR','None',#493,#12);
#12=ADVANCED_BREP_SHAPE_REPRESENTATION('',(#14),#485);
#13=STYLED_ITEM('',(#502),#14);
#14=MANIFOLD_SOLID_BREP('Volumenk\X\F6rper1',#296);
#15=FACE_OUTER_BOUND('',#30,.T.);
#16=FACE_OUTER_BOUND('',#31,.T.);
#17=FACE_OUTER_BOUND('',#32,.T.);
#18=FACE_OUTER_BOUND('',#33,.T.);
#19=FACE_OUTER_BOUND('',#34,.T.);
#20=FACE_OUTER_BOUND('',#35,.T.);
#21=FACE_OUTER_BOUND('',#36,.T.);
#22=FACE_OUTER_BOUND('',#37,.T.);
#23=FACE_OUTER_BOUND('',#38,.T.);
#24=FACE_OUTER_BOUND('',#39,.T.);
#25=FACE_OUTER_BOUND('',#40,.T.);
#26=FACE_OUTER_BOUND('',#41,.T.);
#27=FACE_OUTER_BOUND('',#42,.T.);
#28=FACE_OUTER_BOUND('',#43,.T.);
#29=FACE_OUTER_BOUND('',#44,.T.);
#30=EDGE_LOOP('',(#188,#189,#190,#191));
#31=EDGE_LOOP('',(#192,#193,#194,#195));
#32=EDGE_LOOP('',(#196,#197,#198,#199));
#33=EDGE_LOOP('',(#200,#201,#202,#203));
#34=EDGE_LOOP('',(#204,#205,#206,#207));
#35=EDGE_LOOP('',(#208,#209,#210,#211));
#36=EDGE_LOOP('',(#212,#213,#214,#215));
#37=EDGE_LOOP('',(#216,#217,#218,#219));
#38=EDGE_LOOP('',(#220,#221,#222,#223));
#39=EDGE_LOOP('',(#224,#225,#226,#227));
#40=EDGE_LOOP('',(#228,#229,#230,#231));
#41=EDGE_LOOP('',(#232,#233,#234,#235));
#42=EDGE_LOOP('',(#236,#237,#238,#239));
#43=EDGE_LOOP('',(#240,#241,#242,#243,#244,#245,#246,#247,#248,#249,#250,
#251,#252));
#44=EDGE_LOOP('',(#253,#254,#255,#256,#257,#258,#259,#260,#261,#262,#263,
#264,#265));
#45=LINE('',#406,#84);
#46=LINE('',#408,#85);
#47=LINE('',#410,#86);
#48=LINE('',#411,#87);
#49=LINE('',#414,#88);
#50=LINE('',#416,#89);
#51=LINE('',#417,#90);
#52=LINE('',#420,#91);
#53=LINE('',#422,#92);
#54=LINE('',#423,#93);
#55=LINE('',#426,#94);
#56=LINE('',#428,#95);
#57=LINE('',#429,#96);
#58=LINE('',#432,#97);
#59=LINE('',#434,#98);
#60=LINE('',#435,#99);
#61=LINE('',#438,#100);
#62=LINE('',#440,#101);
#63=LINE('',#441,#102);
#64=LINE('',#444,#103);
#65=LINE('',#446,#104);
#66=LINE('',#447,#105);
#67=LINE('',#450,#106);
#68=LINE('',#452,#107);
#69=LINE('',#453,#108);
#70=LINE('',#456,#109);
#71=LINE('',#458,#110);
#72=LINE('',#459,#111);
#73=LINE('',#462,#112);
#74=LINE('',#464,#113);
#75=LINE('',#465,#114);
#76=LINE('',#468,#115);
#77=LINE('',#470,#116);
#78=LINE('',#471,#117);
#79=LINE('',#474,#118);
#80=LINE('',#476,#119);
#81=LINE('',#477,#120);
#82=LINE('',#479,#121);
#83=LINE('',#480,#122);
#84=VECTOR('',#335,10.);
#85=VECTOR('',#336,10.);
#86=VECTOR('',#337,10.);
#87=VECTOR('',#338,10.);
#88=VECTOR('',#341,10.);
#89=VECTOR('',#342,10.);
#90=VECTOR('',#343,10.);
#91=VECTOR('',#346,10.);
#92=VECTOR('',#347,10.);
#93=VECTOR('',#348,10.);
#94=VECTOR('',#351,10.);
#95=VECTOR('',#352,10.);
#96=VECTOR('',#353,10.);
#97=VECTOR('',#356,10.);
#98=VECTOR('',#357,10.);
#99=VECTOR('',#358,10.);
#100=VECTOR('',#361,10.);
#101=VECTOR('',#362,10.);
#102=VECTOR('',#363,10.);
#103=VECTOR('',#366,10.);
#104=VECTOR('',#367,10.);
#105=VECTOR('',#368,10.);
#106=VECTOR('',#371,10.);
#107=VECTOR('',#372,10.);
#108=VECTOR('',#373,10.);
#109=VECTOR('',#376,10.);
#110=VECTOR('',#377,10.);
#111=VECTOR('',#378,10.);
#112=VECTOR('',#381,10.);
#113=VECTOR('',#382,10.);
#114=VECTOR('',#383,10.);
#115=VECTOR('',#386,10.);
#116=VECTOR('',#387,10.);
#117=VECTOR('',#388,10.);
#118=VECTOR('',#391,10.);
#119=VECTOR('',#392,10.);
#120=VECTOR('',#393,10.);
#121=VECTOR('',#396,10.);
#122=VECTOR('',#397,10.);
#123=VERTEX_POINT('',#404);
#124=VERTEX_POINT('',#405);
#125=VERTEX_POINT('',#407);
#126=VERTEX_POINT('',#409);
#127=VERTEX_POINT('',#413);
#128=VERTEX_POINT('',#415);
#129=VERTEX_POINT('',#419);
#130=VERTEX_POINT('',#421);
#131=VERTEX_POINT('',#425);
#132=VERTEX_POINT('',#427);
#133=VERTEX_POINT('',#431);
#134=VERTEX_POINT('',#433);
#135=VERTEX_POINT('',#437);
#136=VERTEX_POINT('',#439);
#137=VERTEX_POINT('',#443);
#138=VERTEX_POINT('',#445);
#139=VERTEX_POINT('',#449);
#140=VERTEX_POINT('',#451);
#141=VERTEX_POINT('',#455);
#142=VERTEX_POINT('',#457);
#143=VERTEX_POINT('',#461);
#144=VERTEX_POINT('',#463);
#145=VERTEX_POINT('',#467);
#146=VERTEX_POINT('',#469);
#147=VERTEX_POINT('',#473);
#148=VERTEX_POINT('',#475);
#149=EDGE_CURVE('',#123,#124,#45,.T.);
#150=EDGE_CURVE('',#125,#124,#46,.T.);
#151=EDGE_CURVE('',#125,#126,#47,.T.);
#152=EDGE_CURVE('',#126,#123,#48,.T.);
#153=EDGE_CURVE('',#124,#127,#49,.T.);
#154=EDGE_CURVE('',#128,#127,#50,.T.);
#155=EDGE_CURVE('',#128,#125,#51,.T.);
#156=EDGE_CURVE('',#127,#129,#52,.T.);
#157=EDGE_CURVE('',#130,#129,#53,.T.);
#158=EDGE_CURVE('',#130,#128,#54,.T.);
#159=EDGE_CURVE('',#129,#131,#55,.T.);
#160=EDGE_CURVE('',#132,#131,#56,.T.);
#161=EDGE_CURVE('',#132,#130,#57,.T.);
#162=EDGE_CURVE('',#131,#133,#58,.T.);
#163=EDGE_CURVE('',#134,#133,#59,.T.);
#164=EDGE_CURVE('',#134,#132,#60,.T.);
#165=EDGE_CURVE('',#133,#135,#61,.T.);
#166=EDGE_CURVE('',#136,#135,#62,.T.);
#167=EDGE_CURVE('',#136,#134,#63,.T.);
#168=EDGE_CURVE('',#135,#137,#64,.T.);
#169=EDGE_CURVE('',#138,#137,#65,.T.);
#170=EDGE_CURVE('',#138,#136,#66,.T.);
#171=EDGE_CURVE('',#137,#139,#67,.T.);
#172=EDGE_CURVE('',#140,#139,#68,.T.);
#173=EDGE_CURVE('',#140,#138,#69,.T.);
#174=EDGE_CURVE('',#139,#141,#70,.T.);
#175=EDGE_CURVE('',#142,#141,#71,.T.);
#176=EDGE_CURVE('',#142,#140,#72,.T.);
#177=EDGE_CURVE('',#141,#143,#73,.T.);
#178=EDGE_CURVE('',#144,#143,#74,.T.);
#179=EDGE_CURVE('',#144,#142,#75,.T.);
#180=EDGE_CURVE('',#143,#145,#76,.T.);
#181=EDGE_CURVE('',#146,#145,#77,.T.);
#182=EDGE_CURVE('',#146,#144,#78,.T.);
#183=EDGE_CURVE('',#145,#147,#79,.T.);
#184=EDGE_CURVE('',#148,#147,#80,.T.);
#185=EDGE_CURVE('',#148,#146,#81,.T.);
#186=EDGE_CURVE('',#147,#123,#82,.T.);
#187=EDGE_CURVE('',#126,#148,#83,.T.);
#188=ORIENTED_EDGE('',*,*,#149,.T.);
#189=ORIENTED_EDGE('',*,*,#150,.F.);
#190=ORIENTED_EDGE('',*,*,#151,.T.);
#191=ORIENTED_EDGE('',*,*,#152,.T.);
#192=ORIENTED_EDGE('',*,*,#153,.T.);
#193=ORIENTED_EDGE('',*,*,#154,.F.);
#194=ORIENTED_EDGE('',*,*,#155,.T.);
#195=ORIENTED_EDGE('',*,*,#150,.T.);
#196=ORIENTED_EDGE('',*,*,#156,.T.);
#197=ORIENTED_EDGE('',*,*,#157,.F.);
#198=ORIENTED_EDGE('',*,*,#158,.T.);
#199=ORIENTED_EDGE('',*,*,#154,.T.);
#200=ORIENTED_EDGE('',*,*,#159,.T.);
#201=ORIENTED_EDGE('',*,*,#160,.F.);
#202=ORIENTED_EDGE('',*,*,#161,.T.);
#203=ORIENTED_EDGE('',*,*,#157,.T.);
#204=ORIENTED_EDGE('',*,*,#162,.T.);
#205=ORIENTED_EDGE('',*,*,#163,.F.);
#206=ORIENTED_EDGE('',*,*,#164,.T.);
#207=ORIENTED_EDGE('',*,*,#160,.T.);
#208=ORIENTED_EDGE('',*,*,#165,.T.);
#209=ORIENTED_EDGE('',*,*,#166,.F.);
#210=ORIENTED_EDGE('',*,*,#167,.T.);
#211=ORIENTED_EDGE('',*,*,#163,.T.);
#212=ORIENTED_EDGE('',*,*,#168,.T.);
#213=ORIENTED_EDGE('',*,*,#169,.F.);
#214=ORIENTED_EDGE('',*,*,#170,.T.);
#215=ORIENTED_EDGE('',*,*,#166,.T.);
#216=ORIENTED_EDGE('',*,*,#171,.T.);
#217=ORIENTED_EDGE('',*,*,#172,.F.);
#218=ORIENTED_EDGE('',*,*,#173,.T.);
#219=ORIENTED_EDGE('',*,*,#169,.T.);
#220=ORIENTED_EDGE('',*,*,#174,.T.);
#221=ORIENTED_EDGE('',*,*,#175,.F.);
#222=ORIENTED_EDGE('',*,*,#176,.T.);
#223=ORIENTED_EDGE('',*,*,#172,.T.);
#224=ORIENTED_EDGE('',*,*,#177,.T.);
#225=ORIENTED_EDGE('',*,*,#178,.F.);
#226=ORIENTED_EDGE('',*,*,#179,.T.);
#227=ORIENTED_EDGE('',*,*,#175,.T.);
#228=ORIENTED_EDGE('',*,*,#180,.T.);
#229=ORIENTED_EDGE('',*,*,#181,.F.);
#230=ORIENTED_EDGE('',*,*,#182,.T.);
#231=ORIENTED_EDGE('',*,*,#178,.T.);
#232=ORIENTED_EDGE('',*,*,#183,.T.);
#233=ORIENTED_EDGE('',*,*,#184,.F.);
#234=ORIENTED_EDGE('',*,*,#185,.T.);
#235=ORIENTED_EDGE('',*,*,#181,.T.);
#236=ORIENTED_EDGE('',*,*,#186,.T.);
#237=ORIENTED_EDGE('',*,*,#152,.F.);
#238=ORIENTED_EDGE('',*,*,#187,.T.);
#239=ORIENTED_EDGE('',*,*,#184,.T.);
#240=ORIENTED_EDGE('',*,*,#187,.F.);
#241=ORIENTED_EDGE('',*,*,#151,.F.);
#242=ORIENTED_EDGE('',*,*,#155,.F.);
#243=ORIENTED_EDGE('',*,*,#158,.F.);
#244=ORIENTED_EDGE('',*,*,#161,.F.);
#245=ORIENTED_EDGE('',*,*,#164,.F.);
#246=ORIENTED_EDGE('',*,*,#167,.F.);
#247=ORIENTED_EDGE('',*,*,#170,.F.);
#248=ORIENTED_EDGE('',*,*,#173,.F.);
#249=ORIENTED_EDGE('',*,*,#176,.F.);
#250=ORIENTED_EDGE('',*,*,#179,.F.);
#251=ORIENTED_EDGE('',*,*,#182,.F.);
#252=ORIENTED_EDGE('',*,*,#185,.F.);
#253=ORIENTED_EDGE('',*,*,#149,.F.);
#254=ORIENTED_EDGE('',*,*,#186,.F.);
#255=ORIENTED_EDGE('',*,*,#183,.F.);
#256=ORIENTED_EDGE('',*,*,#180,.F.);
#257=ORIENTED_EDGE('',*,*,#177,.F.);
#258=ORIENTED_EDGE('',*,*,#174,.F.);
#259=ORIENTED_EDGE('',*,*,#171,.F.);
#260=ORIENTED_EDGE('',*,*,#168,.F.);
#261=ORIENTED_EDGE('',*,*,#165,.F.);
#262=ORIENTED_EDGE('',*,*,#162,.F.);
#263=ORIENTED_EDGE('',*,*,#159,.F.);
#264=ORIENTED_EDGE('',*,*,#156,.F.);
#265=ORIENTED_EDGE('',*,*,#153,.F.);
#266=PLANE('',#316);
#267=PLANE('',#317);
#268=PLANE('',#318);
#269=PLANE('',#319);
#270=PLANE('',#320);
#271=PLANE('',#321);
#272=PLANE('',#322);
#273=PLANE('',#323);
#274=PLANE('',#324);
#275=PLANE('',#325);
#276=PLANE('',#326);
#277=PLANE('',#327);
#278=PLANE('',#328);
#279=PLANE('',#329);
#280=PLANE('',#330);
#281=ADVANCED_FACE('',(#15),#266,.T.);
#282=ADVANCED_FACE('',(#16),#267,.T.);
#283=ADVANCED_FACE('',(#17),#268,.T.);
#284=ADVANCED_FACE('',(#18),#269,.T.);
#285=ADVANCED_FACE('',(#19),#270,.T.);
#286=ADVANCED_FACE('',(#20),#271,.T.);
#287=ADVANCED_FACE('',(#21),#272,.T.);
#288=ADVANCED_FACE('',(#22),#273,.T.);
#289=ADVANCED_FACE('',(#23),#274,.T.);
#290=ADVANCED_FACE('',(#24),#275,.T.);
#291=ADVANCED_FACE('',(#25),#276,.T.);
#292=ADVANCED_FACE('',(#26),#277,.T.);
#293=ADVANCED_FACE('',(#27),#278,.T.);
#294=ADVANCED_FACE('',(#28),#279,.F.);
#295=ADVANCED_FACE('',(#29),#280,.T.);
#296=CLOSED_SHELL('',(#281,#282,#283,#284,#285,#286,#287,#288,#289,#290,
#291,#292,#293,#294,#295));
#297=DERIVED_UNIT_ELEMENT(#299,1.);
#298=DERIVED_UNIT_ELEMENT(#488,-3.);
#299=(
MASS_UNIT()
NAMED_UNIT(*)
SI_UNIT($,.GRAM.)
);
#300=DERIVED_UNIT((#297,#298));
#301=MEASURE_REPRESENTATION_ITEM('density measure',
POSITIVE_RATIO_MEASURE(2.75),#300);
#302=PROPERTY_DEFINITION_REPRESENTATION(#307,#304);
#303=PROPERTY_DEFINITION_REPRESENTATION(#308,#305);
#304=REPRESENTATION('material name',(#306),#485);
#305=REPRESENTATION('density',(#301),#485);
#306=DESCRIPTIVE_REPRESENTATION_ITEM('Al Mg Si 0,7 F26',
'Al Mg Si 0,7 F26');
#307=PROPERTY_DEFINITION('material property','material name',#495);
#308=PROPERTY_DEFINITION('material property','density of part',#495);
#309=DATE_TIME_ROLE('creation_date');
#310=APPLIED_DATE_AND_TIME_ASSIGNMENT(#311,#309,(#495));
#311=DATE_AND_TIME(#312,#313);
#312=CALENDAR_DATE(2009,4,5);
#313=LOCAL_TIME(0,0,0.,#314);
#314=COORDINATED_UNIVERSAL_TIME_OFFSET(0,0,.BEHIND.);
#315=AXIS2_PLACEMENT_3D('placement',#402,#331,#332);
#316=AXIS2_PLACEMENT_3D('',#403,#333,#334);
#317=AXIS2_PLACEMENT_3D('',#412,#339,#340);
#318=AXIS2_PLACEMENT_3D('',#418,#344,#345);
#319=AXIS2_PLACEMENT_3D('',#424,#349,#350);
#320=AXIS2_PLACEMENT_3D('',#430,#354,#355);
#321=AXIS2_PLACEMENT_3D('',#436,#359,#360);
#322=AXIS2_PLACEMENT_3D('',#442,#364,#365);
#323=AXIS2_PLACEMENT_3D('',#448,#369,#370);
#324=AXIS2_PLACEMENT_3D('',#454,#374,#375);
#325=AXIS2_PLACEMENT_3D('',#460,#379,#380);
#326=AXIS2_PLACEMENT_3D('',#466,#384,#385);
#327=AXIS2_PLACEMENT_3D('',#472,#389,#390);
#328=AXIS2_PLACEMENT_3D('',#478,#394,#395);
#329=AXIS2_PLACEMENT_3D('',#481,#398,#399);
#330=AXIS2_PLACEMENT_3D('',#482,#400,#401);
#331=DIRECTION('axis',(0.,0.,1.));
#332=DIRECTION('refdir',(1.,0.,0.));
#333=DIRECTION('center_axis',(-2.89050649274065E-17,1.,0.));
#334=DIRECTION('ref_axis',(0.,0.,1.));
#335=DIRECTION('',(1.,2.89050649274065E-17,0.));
#336=DIRECTION('',(0.,0.,1.));
#337=DIRECTION('',(-1.,-2.89050649274065E-17,0.));
#338=DIRECTION('',(0.,0.,1.));
#339=DIRECTION('center_axis',(-0.90630778703665,0.422618261740699,0.));
#340=DIRECTION('ref_axis',(0.,0.,1.));
#341=DIRECTION('',(0.422618261740699,0.90630778703665,0.));
#342=DIRECTION('',(0.,0.,1.));
#343=DIRECTION('',(-0.422618261740699,-0.90630778703665,0.));
#344=DIRECTION('center_axis',(0.300705799504273,0.953716950748227,0.));
#345=DIRECTION('ref_axis',(0.,0.,1.));
#346=DIRECTION('',(0.953716950748227,-0.300705799504273,0.));
#347=DIRECTION('',(0.,0.,1.));
#348=DIRECTION('',(-0.953716950748227,0.300705799504273,0.));
#349=DIRECTION('center_axis',(-0.300705799504273,0.953716950748227,0.));
#350=DIRECTION('ref_axis',(0.,0.,1.));
#351=DIRECTION('',(0.953716950748227,0.300705799504273,0.));
#352=DIRECTION('',(0.,0.,1.));
#353=DIRECTION('',(-0.953716950748227,-0.300705799504273,0.));
#354=DIRECTION('center_axis',(0.90630778703665,0.422618261740699,0.));
#355=DIRECTION('ref_axis',(0.,0.,-1.));
#356=DIRECTION('',(0.422618261740699,-0.90630778703665,0.));
#357=DIRECTION('',(0.,0.,1.));
#358=DIRECTION('',(-0.422618261740699,0.90630778703665,0.));
#359=DIRECTION('center_axis',(2.89050649274065E-17,1.,0.));
#360=DIRECTION('ref_axis',(0.,0.,1.));
#361=DIRECTION('',(1.,-2.89050649274065E-17,0.));
#362=DIRECTION('',(0.,0.,1.));
#363=DIRECTION('',(-1.,2.89050649274065E-17,0.));
#364=DIRECTION('center_axis',(1.,0.,0.));
#365=DIRECTION('ref_axis',(0.,0.,-1.));
#366=DIRECTION('',(0.,-1.,0.));
#367=DIRECTION('',(0.,0.,1.));
#368=DIRECTION('',(0.,1.,0.));
#369=DIRECTION('center_axis',(-2.1350442781253E-17,-1.,0.));
#370=DIRECTION('ref_axis',(0.,0.,-1.));
#371=DIRECTION('',(-1.,2.1350442781253E-17,0.));
#372=DIRECTION('',(0.,0.,1.));
#373=DIRECTION('',(1.,-2.1350442781253E-17,0.));
#374=DIRECTION('center_axis',(-1.,0.,0.));
#375=DIRECTION('ref_axis',(0.,0.,1.));
#376=DIRECTION('',(0.,1.,0.));
#377=DIRECTION('',(0.,0.,1.));
#378=DIRECTION('',(0.,-1.,0.));
#379=DIRECTION('center_axis',(0.,-1.,0.));
#380=DIRECTION('ref_axis',(0.,0.,-1.));
#381=DIRECTION('',(-1.,0.,0.));
#382=DIRECTION('',(0.,0.,1.));
#383=DIRECTION('',(1.,0.,0.));
#384=DIRECTION('center_axis',(1.,0.,0.));
#385=DIRECTION('ref_axis',(0.,0.,-1.));
#386=DIRECTION('',(0.,-1.,0.));
#387=DIRECTION('',(0.,0.,1.));
#388=DIRECTION('',(0.,1.,0.));
#389=DIRECTION('center_axis',(2.1350442781253E-17,-1.,0.));
#390=DIRECTION('ref_axis',(0.,0.,-1.));
#391=DIRECTION('',(-1.,-2.1350442781253E-17,0.));
#392=DIRECTION('',(0.,0.,1.));
#393=DIRECTION('',(1.,2.1350442781253E-17,0.));
#394=DIRECTION('center_axis',(-1.,0.,0.));
#395=DIRECTION('ref_axis',(0.,0.,1.));
#396=DIRECTION('',(0.,1.,0.));
#397=DIRECTION('',(0.,-1.,0.));
#398=DIRECTION('center_axis',(0.,0.,1.));
#399=DIRECTION('ref_axis',(1.,0.,0.));
#400=DIRECTION('center_axis',(0.,0.,1.));
#401=DIRECTION('ref_axis',(1.,0.,0.));
#402=CARTESIAN_POINT('',(0.,0.,0.));
#403=CARTESIAN_POINT('Origin',(-34.5,3.5,0.));
#404=CARTESIAN_POINT('',(-34.5,3.5,599.5));
#405=CARTESIAN_POINT('',(-15.2953549418861,3.5,599.5));
#406=CARTESIAN_POINT('',(-15.2953549418861,3.5,599.5));
#407=CARTESIAN_POINT('',(-15.2953549418861,3.5,0.));
#408=CARTESIAN_POINT('',(-15.2953549418861,3.5,0.));
#409=CARTESIAN_POINT('',(-34.5,3.5,0.));
#410=CARTESIAN_POINT('',(-15.2953549418861,3.5,0.));
#411=CARTESIAN_POINT('',(-34.5,3.5,0.));
#412=CARTESIAN_POINT('Origin',(-15.2953549418861,3.5,0.));
#413=CARTESIAN_POINT('',(-5.5,24.5062064617223,599.5));
#414=CARTESIAN_POINT('',(-5.5,24.5062064617223,599.5));
#415=CARTESIAN_POINT('',(-5.5,24.5062064617223,0.));
#416=CARTESIAN_POINT('',(-5.5,24.5062064617223,0.));
#417=CARTESIAN_POINT('',(-5.5,24.5062064617223,0.));
#418=CARTESIAN_POINT('Origin',(-5.5,24.5062064617223,0.));
#419=CARTESIAN_POINT('',(-1.58226298599561E-17,22.7720631228878,599.5));
#420=CARTESIAN_POINT('',(-1.58226298599561E-17,22.7720631228878,599.5));
#421=CARTESIAN_POINT('',(-1.58226298599561E-17,22.7720631228878,0.));
#422=CARTESIAN_POINT('',(-1.58226298599561E-17,22.7720631228878,0.));
#423=CARTESIAN_POINT('',(-1.58226298599561E-17,22.7720631228878,0.));
#424=CARTESIAN_POINT('Origin',(-1.58226298599561E-17,22.7720631228878,0.));
#425=CARTESIAN_POINT('',(5.5,24.5062064617223,599.5));
#426=CARTESIAN_POINT('',(5.5,24.5062064617223,599.5));
#427=CARTESIAN_POINT('',(5.5,24.5062064617223,0.));
#428=CARTESIAN_POINT('',(5.5,24.5062064617223,0.));
#429=CARTESIAN_POINT('',(5.5,24.5062064617223,0.));
#430=CARTESIAN_POINT('Origin',(5.5,24.5062064617223,0.));
#431=CARTESIAN_POINT('',(15.2953549418861,3.5,599.5));
#432=CARTESIAN_POINT('',(15.2953549418861,3.5,599.5));
#433=CARTESIAN_POINT('',(15.2953549418861,3.5,0.));
#434=CARTESIAN_POINT('',(15.2953549418861,3.5,0.));
#435=CARTESIAN_POINT('',(15.2953549418861,3.5,0.));
#436=CARTESIAN_POINT('Origin',(15.2953549418861,3.5,0.));
#437=CARTESIAN_POINT('',(34.5,3.5,599.5));
#438=CARTESIAN_POINT('',(34.5,3.5,599.5));
#439=CARTESIAN_POINT('',(34.5,3.5,0.));
#440=CARTESIAN_POINT('',(34.5,3.5,0.));
#441=CARTESIAN_POINT('',(34.5,3.5,0.));
#442=CARTESIAN_POINT('Origin',(34.5,3.5,0.));
#443=CARTESIAN_POINT('',(34.5,-3.5,599.5));
#444=CARTESIAN_POINT('',(34.5,-3.5,599.5));
#445=CARTESIAN_POINT('',(34.5,-3.5,0.));
#446=CARTESIAN_POINT('',(34.5,-3.5,0.));
#447=CARTESIAN_POINT('',(34.5,-3.5,0.));
#448=CARTESIAN_POINT('Origin',(34.5,-3.5,0.));
#449=CARTESIAN_POINT('',(8.5,-3.5,599.5));
#450=CARTESIAN_POINT('',(8.5,-3.5,599.5));
#451=CARTESIAN_POINT('',(8.5,-3.5,0.));
#452=CARTESIAN_POINT('',(8.5,-3.5,0.));
#453=CARTESIAN_POINT('',(8.5,-3.5,0.));
#454=CARTESIAN_POINT('Origin',(8.5,-3.5,0.));
#455=CARTESIAN_POINT('',(8.5,7.,599.5));
#456=CARTESIAN_POINT('',(8.5,7.,599.5));
#457=CARTESIAN_POINT('',(8.5,7.,0.));
#458=CARTESIAN_POINT('',(8.5,7.,0.));
#459=CARTESIAN_POINT('',(8.5,7.,0.));
#460=CARTESIAN_POINT('Origin',(8.5,7.,0.));
#461=CARTESIAN_POINT('',(-8.5,7.,599.5));
#462=CARTESIAN_POINT('',(-8.5,7.,599.5));
#463=CARTESIAN_POINT('',(-8.5,7.,0.));
#464=CARTESIAN_POINT('',(-8.5,7.,0.));
#465=CARTESIAN_POINT('',(-8.5,7.,0.));
#466=CARTESIAN_POINT('Origin',(-8.5,7.,0.));
#467=CARTESIAN_POINT('',(-8.5,-3.5,599.5));
#468=CARTESIAN_POINT('',(-8.5,-3.5,599.5));
#469=CARTESIAN_POINT('',(-8.5,-3.5,0.));
#470=CARTESIAN_POINT('',(-8.5,-3.5,0.));
#471=CARTESIAN_POINT('',(-8.5,-3.5,0.));
#472=CARTESIAN_POINT('Origin',(-8.5,-3.5,0.));
#473=CARTESIAN_POINT('',(-34.5,-3.5,599.5));
#474=CARTESIAN_POINT('',(-34.5,-3.5,599.5));
#475=CARTESIAN_POINT('',(-34.5,-3.5,0.));
#476=CARTESIAN_POINT('',(-34.5,-3.5,0.));
#477=CARTESIAN_POINT('',(-34.5,-3.5,0.));
#478=CARTESIAN_POINT('Origin',(-34.5,-3.5,0.));
#479=CARTESIAN_POINT('',(-34.5,3.5,599.5));
#480=CARTESIAN_POINT('',(-34.5,3.5,0.));
#481=CARTESIAN_POINT('Origin',(5.55111512312578E-16,5.14209014414465,0.));
#482=CARTESIAN_POINT('Origin',(8.32667268468867E-16,5.14209014414465,599.5));
#483=UNCERTAINTY_MEASURE_WITH_UNIT(LENGTH_MEASURE(0.01),#487,
'DISTANCE_ACCURACY_VALUE',
'Maximum model space distance between geometric entities at asserted c
onnectivities');
#484=UNCERTAINTY_MEASURE_WITH_UNIT(LENGTH_MEASURE(0.01),#487,
'DISTANCE_ACCURACY_VALUE',
'Maximum model space distance between geometric entities at asserted c
onnectivities');
#485=(
GEOMETRIC_REPRESENTATION_CONTEXT(3)
GLOBAL_UNCERTAINTY_ASSIGNED_CONTEXT((#483))
GLOBAL_UNIT_ASSIGNED_CONTEXT((#487,#489,#490))
REPRESENTATION_CONTEXT('','3D')
);
#486=(
GEOMETRIC_REPRESENTATION_CONTEXT(3)
GLOBAL_UNCERTAINTY_ASSIGNED_CONTEXT((#484))
GLOBAL_UNIT_ASSIGNED_CONTEXT((#487,#489,#490))
REPRESENTATION_CONTEXT('','3D')
);
#487=(
LENGTH_UNIT()
NAMED_UNIT(*)
SI_UNIT(.MILLI.,.METRE.)
);
#488=(
LENGTH_UNIT()
NAMED_UNIT(*)
SI_UNIT(.CENTI.,.METRE.)
);
#489=(
NAMED_UNIT(*)
PLANE_ANGLE_UNIT()
SI_UNIT($,.RADIAN.)
);
#490=(
NAMED_UNIT(*)
SI_UNIT($,.STERADIAN.)
SOLID_ANGLE_UNIT()
);
#491=SHAPE_DEFINITION_REPRESENTATION(#492,#493);
#492=PRODUCT_DEFINITION_SHAPE('',$,#495);
#493=SHAPE_REPRESENTATION('',(#315),#485);
#494=PRODUCT_DEFINITION_CONTEXT('part definition',#499,'design');
#495=PRODUCT_DEFINITION('15-0009-0FZ.000','00011689',#496,#494);
#496=PRODUCT_DEFINITION_FORMATION('',$,#501);
#497=PRODUCT_RELATED_PRODUCT_CATEGORY('00011689','00011689',(#501));
#498=APPLICATION_PROTOCOL_DEFINITION('international standard',
'automotive_design',2009,#499);
#499=APPLICATION_CONTEXT(
'Core Data for Automotive Mechanical Design Process');
#500=PRODUCT_CONTEXT('part definition',#499,'mechanical');
#501=PRODUCT('15-0009-0FZ.000','00011689','niedrige Baureihe',(#500));
#502=PRESENTATION_STYLE_ASSIGNMENT((#503));
#503=SURFACE_STYLE_USAGE(.BOTH.,#506);
#504=SURFACE_STYLE_RENDERING_WITH_PROPERTIES($,#510,(#505));
#505=SURFACE_STYLE_TRANSPARENT(0.);
#506=SURFACE_SIDE_STYLE('',(#507,#504));
#507=SURFACE_STYLE_FILL_AREA(#508);
#508=FILL_AREA_STYLE('',(#509));
#509=FILL_AREA_STYLE_COLOUR('',#510);
#510=COLOUR_RGB('',0.811764705882353,0.8,0.823529411764706);
ENDSEC;
END-ISO-10303-21;
