ISO-10303-21;
HEADER;
/* Generated by software containing ST-Developer
 * from STEP Tools, Inc. (www.steptools.com) 
 */

FILE_DESCRIPTION(
/* description */ ('Kompakt Linearlager'),
/* implementation_level */ '2;1');

FILE_NAME(
/* name */ '\\\\fileserver\\Daten2\\STEP Daten fuer PIM\\101907-0.step',

/* time_stamp */ '2021-09-03T15:06:20+02:00',
/* author */ ('Praktikum'),
/* organization */ (''),
/* preprocessor_version */ 'ST-DEVELOPER v18.1',
/* originating_system */ 'Autodesk Inventor 2021',
/* authorisation */ '');

FILE_SCHEMA (('AUTOMOTIVE_DESIGN { 1 0 10303 214 3 1 1 }'));
ENDSEC;

DATA;
#10=MECHANICAL_DESIGN_GEOMETRIC_PRESENTATION_REPRESENTATION('',(#13),#203);
#11=SHAPE_REPRESENTATION_RELATIONSHIP('SRR','None',#210,#12);
#12=ADVANCED_BREP_SHAPE_REPRESENTATION('',(#14),#202);
#13=STYLED_ITEM('',(#219),#14);
#14=MANIFOLD_SOLID_BREP('Volumenk\X\F6rper1',#101);
#15=FACE_BOUND('',#34,.T.);
#16=FACE_BOUND('',#37,.T.);
#17=PLANE('',#129);
#18=PLANE('',#134);
#19=LINE('',#184,#21);
#20=LINE('',#199,#22);
#21=VECTOR('',#151,20.);
#22=VECTOR('',#172,15.);
#23=CYLINDRICAL_SURFACE('',#126,20.);
#24=CYLINDRICAL_SURFACE('',#136,15.);
#25=FACE_OUTER_BOUND('',#31,.T.);
#26=FACE_OUTER_BOUND('',#32,.T.);
#27=FACE_OUTER_BOUND('',#33,.T.);
#28=FACE_OUTER_BOUND('',#35,.T.);
#29=FACE_OUTER_BOUND('',#36,.T.);
#30=FACE_OUTER_BOUND('',#38,.T.);
#31=EDGE_LOOP('',(#69,#70,#71,#72,#73));
#32=EDGE_LOOP('',(#74,#75,#76,#77,#78,#79));
#33=EDGE_LOOP('',(#80));
#34=EDGE_LOOP('',(#81));
#35=EDGE_LOOP('',(#82,#83,#84,#85,#86));
#36=EDGE_LOOP('',(#87));
#37=EDGE_LOOP('',(#88));
#38=EDGE_LOOP('',(#89,#90,#91,#92));
#39=CIRCLE('',#122,19.5);
#40=CIRCLE('',#123,0.5);
#41=CIRCLE('',#124,20.);
#42=CIRCLE('',#125,20.);
#43=CIRCLE('',#127,20.);
#44=CIRCLE('',#128,20.);
#45=CIRCLE('',#130,15.);
#46=CIRCLE('',#132,0.5);
#47=CIRCLE('',#133,19.5);
#48=CIRCLE('',#135,15.);
#49=VERTEX_POINT('',#175);
#50=VERTEX_POINT('',#177);
#51=VERTEX_POINT('',#179);
#52=VERTEX_POINT('',#183);
#53=VERTEX_POINT('',#185);
#54=VERTEX_POINT('',#189);
#55=VERTEX_POINT('',#192);
#56=VERTEX_POINT('',#196);
#57=EDGE_CURVE('',#49,#49,#39,.T.);
#58=EDGE_CURVE('',#49,#50,#40,.T.);
#59=EDGE_CURVE('',#50,#51,#41,.T.);
#60=EDGE_CURVE('',#51,#50,#42,.T.);
#61=EDGE_CURVE('',#51,#52,#19,.T.);
#62=EDGE_CURVE('',#53,#52,#43,.T.);
#63=EDGE_CURVE('',#52,#53,#44,.T.);
#64=EDGE_CURVE('',#54,#54,#45,.T.);
#65=EDGE_CURVE('',#53,#55,#46,.T.);
#66=EDGE_CURVE('',#55,#55,#47,.T.);
#67=EDGE_CURVE('',#56,#56,#48,.T.);
#68=EDGE_CURVE('',#54,#56,#20,.T.);
#69=ORIENTED_EDGE('',*,*,#57,.T.);
#70=ORIENTED_EDGE('',*,*,#58,.T.);
#71=ORIENTED_EDGE('',*,*,#59,.T.);
#72=ORIENTED_EDGE('',*,*,#60,.T.);
#73=ORIENTED_EDGE('',*,*,#58,.F.);
#74=ORIENTED_EDGE('',*,*,#60,.F.);
#75=ORIENTED_EDGE('',*,*,#61,.T.);
#76=ORIENTED_EDGE('',*,*,#62,.F.);
#77=ORIENTED_EDGE('',*,*,#63,.F.);
#78=ORIENTED_EDGE('',*,*,#61,.F.);
#79=ORIENTED_EDGE('',*,*,#59,.F.);
#80=ORIENTED_EDGE('',*,*,#57,.F.);
#81=ORIENTED_EDGE('',*,*,#64,.F.);
#82=ORIENTED_EDGE('',*,*,#62,.T.);
#83=ORIENTED_EDGE('',*,*,#63,.T.);
#84=ORIENTED_EDGE('',*,*,#65,.T.);
#85=ORIENTED_EDGE('',*,*,#66,.T.);
#86=ORIENTED_EDGE('',*,*,#65,.F.);
#87=ORIENTED_EDGE('',*,*,#66,.F.);
#88=ORIENTED_EDGE('',*,*,#67,.T.);
#89=ORIENTED_EDGE('',*,*,#64,.T.);
#90=ORIENTED_EDGE('',*,*,#68,.T.);
#91=ORIENTED_EDGE('',*,*,#67,.F.);
#92=ORIENTED_EDGE('',*,*,#68,.F.);
#93=TOROIDAL_SURFACE('',#121,19.5,0.5);
#94=TOROIDAL_SURFACE('',#131,19.5,0.5);
#95=ADVANCED_FACE('',(#25),#93,.T.);
#96=ADVANCED_FACE('',(#26),#23,.T.);
#97=ADVANCED_FACE('',(#27,#15),#17,.T.);
#98=ADVANCED_FACE('',(#28),#94,.T.);
#99=ADVANCED_FACE('',(#29,#16),#18,.T.);
#100=ADVANCED_FACE('',(#30),#24,.F.);
#101=CLOSED_SHELL('',(#95,#96,#97,#98,#99,#100));
#102=DERIVED_UNIT_ELEMENT(#104,1.);
#103=DERIVED_UNIT_ELEMENT(#205,-3.);
#104=(
MASS_UNIT()
NAMED_UNIT(*)
SI_UNIT($,.GRAM.)
);
#105=DERIVED_UNIT((#102,#103));
#106=MEASURE_REPRESENTATION_ITEM('density measure',
POSITIVE_RATIO_MEASURE(7.85),#105);
#107=PROPERTY_DEFINITION_REPRESENTATION(#112,#109);
#108=PROPERTY_DEFINITION_REPRESENTATION(#113,#110);
#109=REPRESENTATION('material name',(#111),#202);
#110=REPRESENTATION('density',(#106),#202);
#111=DESCRIPTIVE_REPRESENTATION_ITEM('Stahl','Stahl');
#112=PROPERTY_DEFINITION('material property','material name',#212);
#113=PROPERTY_DEFINITION('material property','density of part',#212);
#114=DATE_TIME_ROLE('creation_date');
#115=APPLIED_DATE_AND_TIME_ASSIGNMENT(#116,#114,(#212));
#116=DATE_AND_TIME(#117,#118);
#117=CALENDAR_DATE(2009,6,5);
#118=LOCAL_TIME(0,0,0.,#119);
#119=COORDINATED_UNIVERSAL_TIME_OFFSET(0,0,.BEHIND.);
#120=AXIS2_PLACEMENT_3D('placement',#173,#137,#138);
#121=AXIS2_PLACEMENT_3D('',#174,#139,#140);
#122=AXIS2_PLACEMENT_3D('',#176,#141,#142);
#123=AXIS2_PLACEMENT_3D('',#178,#143,#144);
#124=AXIS2_PLACEMENT_3D('',#180,#145,#146);
#125=AXIS2_PLACEMENT_3D('',#181,#147,#148);
#126=AXIS2_PLACEMENT_3D('',#182,#149,#150);
#127=AXIS2_PLACEMENT_3D('',#186,#152,#153);
#128=AXIS2_PLACEMENT_3D('',#187,#154,#155);
#129=AXIS2_PLACEMENT_3D('',#188,#156,#157);
#130=AXIS2_PLACEMENT_3D('',#190,#158,#159);
#131=AXIS2_PLACEMENT_3D('',#191,#160,#161);
#132=AXIS2_PLACEMENT_3D('',#193,#162,#163);
#133=AXIS2_PLACEMENT_3D('',#194,#164,#165);
#134=AXIS2_PLACEMENT_3D('',#195,#166,#167);
#135=AXIS2_PLACEMENT_3D('',#197,#168,#169);
#136=AXIS2_PLACEMENT_3D('',#198,#170,#171);
#137=DIRECTION('axis',(0.,0.,1.));
#138=DIRECTION('refdir',(1.,0.,0.));
#139=DIRECTION('center_axis',(1.,0.,0.));
#140=DIRECTION('ref_axis',(0.,0.,-1.));
#141=DIRECTION('center_axis',(-1.,0.,0.));
#142=DIRECTION('ref_axis',(0.,-1.,1.22460635382238E-16));
#143=DIRECTION('center_axis',(0.,-1.,-1.22464679914735E-16));
#144=DIRECTION('ref_axis',(0.,-1.22464679914735E-16,1.));
#145=DIRECTION('center_axis',(1.,0.,0.));
#146=DIRECTION('ref_axis',(0.,-1.,1.22460635382238E-16));
#147=DIRECTION('center_axis',(1.,0.,0.));
#148=DIRECTION('ref_axis',(0.,-1.,1.22460635382238E-16));
#149=DIRECTION('center_axis',(1.,0.,0.));
#150=DIRECTION('ref_axis',(0.,1.,0.));
#151=DIRECTION('',(-1.,0.,0.));
#152=DIRECTION('center_axis',(-1.,0.,0.));
#153=DIRECTION('ref_axis',(0.,-1.,1.22460635382238E-16));
#154=DIRECTION('center_axis',(-1.,0.,0.));
#155=DIRECTION('ref_axis',(0.,-1.,1.22460635382238E-16));
#156=DIRECTION('center_axis',(1.,0.,0.));
#157=DIRECTION('ref_axis',(0.,0.,-1.));
#158=DIRECTION('center_axis',(1.,0.,0.));
#159=DIRECTION('ref_axis',(0.,1.,0.));
#160=DIRECTION('center_axis',(1.,0.,0.));
#161=DIRECTION('ref_axis',(0.,0.,-1.));
#162=DIRECTION('center_axis',(0.,-1.,-1.22464679914735E-16));
#163=DIRECTION('ref_axis',(0.,-1.22464679914735E-16,1.));
#164=DIRECTION('center_axis',(1.,0.,0.));
#165=DIRECTION('ref_axis',(0.,-1.,1.22460635382238E-16));
#166=DIRECTION('center_axis',(-1.,0.,0.));
#167=DIRECTION('ref_axis',(0.,0.,1.));
#168=DIRECTION('center_axis',(1.,0.,0.));
#169=DIRECTION('ref_axis',(0.,1.,0.));
#170=DIRECTION('center_axis',(1.,0.,0.));
#171=DIRECTION('ref_axis',(0.,1.,0.));
#172=DIRECTION('',(-1.,0.,0.));
#173=CARTESIAN_POINT('',(0.,0.,0.));
#174=CARTESIAN_POINT('Origin',(24.5,0.,0.));
#175=CARTESIAN_POINT('',(25.,-2.38806125833734E-15,19.5));
#176=CARTESIAN_POINT('Origin',(25.,0.,0.));
#177=CARTESIAN_POINT('',(24.5,-2.44929359829471E-15,20.));
#178=CARTESIAN_POINT('Origin',(24.5,-2.38806125833734E-15,19.5));
#179=CARTESIAN_POINT('',(24.5,-20.,-2.44929359829471E-15));
#180=CARTESIAN_POINT('Origin',(24.5,0.,0.));
#181=CARTESIAN_POINT('Origin',(24.5,0.,0.));
#182=CARTESIAN_POINT('Origin',(0.,0.,0.));
#183=CARTESIAN_POINT('',(-24.5,-20.,-2.44929359829471E-15));
#184=CARTESIAN_POINT('',(0.,-20.,-2.44929359829471E-15));
#185=CARTESIAN_POINT('',(-24.5,-2.44929359829471E-15,20.));
#186=CARTESIAN_POINT('Origin',(-24.5,0.,0.));
#187=CARTESIAN_POINT('Origin',(-24.5,0.,0.));
#188=CARTESIAN_POINT('Origin',(25.,17.5,0.));
#189=CARTESIAN_POINT('',(25.,-15.,-1.83697019872103E-15));
#190=CARTESIAN_POINT('Origin',(25.,0.,0.));
#191=CARTESIAN_POINT('Origin',(-24.5,0.,0.));
#192=CARTESIAN_POINT('',(-25.,-2.38806125833734E-15,19.5));
#193=CARTESIAN_POINT('Origin',(-24.5,-2.38806125833734E-15,19.5));
#194=CARTESIAN_POINT('Origin',(-25.,0.,0.));
#195=CARTESIAN_POINT('Origin',(-25.,17.5,0.));
#196=CARTESIAN_POINT('',(-25.,-15.,-1.83697019872103E-15));
#197=CARTESIAN_POINT('Origin',(-25.,0.,0.));
#198=CARTESIAN_POINT('Origin',(0.,0.,0.));
#199=CARTESIAN_POINT('',(0.,-15.,-1.83697019872103E-15));
#200=UNCERTAINTY_MEASURE_WITH_UNIT(LENGTH_MEASURE(0.01),#204,
'DISTANCE_ACCURACY_VALUE',
'Maximum model space distance between geometric entities at asserted c
onnectivities');
#201=UNCERTAINTY_MEASURE_WITH_UNIT(LENGTH_MEASURE(0.01),#204,
'DISTANCE_ACCURACY_VALUE',
'Maximum model space distance between geometric entities at asserted c
onnectivities');
#202=(
GEOMETRIC_REPRESENTATION_CONTEXT(3)
GLOBAL_UNCERTAINTY_ASSIGNED_CONTEXT((#200))
GLOBAL_UNIT_ASSIGNED_CONTEXT((#204,#206,#207))
REPRESENTATION_CONTEXT('','3D')
);
#203=(
GEOMETRIC_REPRESENTATION_CONTEXT(3)
GLOBAL_UNCERTAINTY_ASSIGNED_CONTEXT((#201))
GLOBAL_UNIT_ASSIGNED_CONTEXT((#204,#206,#207))
REPRESENTATION_CONTEXT('','3D')
);
#204=(
LENGTH_UNIT()
NAMED_UNIT(*)
SI_UNIT(.MILLI.,.METRE.)
);
#205=(
LENGTH_UNIT()
NAMED_UNIT(*)
SI_UNIT(.CENTI.,.METRE.)
);
#206=(
NAMED_UNIT(*)
PLANE_ANGLE_UNIT()
SI_UNIT($,.RADIAN.)
);
#207=(
NAMED_UNIT(*)
SI_UNIT($,.STERADIAN.)
SOLID_ANGLE_UNIT()
);
#208=SHAPE_DEFINITION_REPRESENTATION(#209,#210);
#209=PRODUCT_DEFINITION_SHAPE('',$,#212);
#210=SHAPE_REPRESENTATION('',(#120),#202);
#211=PRODUCT_DEFINITION_CONTEXT('part definition',#216,'design');
#212=PRODUCT_DEFINITION('leer','00012061',#213,#211);
#213=PRODUCT_DEFINITION_FORMATION('',$,#218);
#214=PRODUCT_RELATED_PRODUCT_CATEGORY('00012061','00012061',(#218));
#215=APPLICATION_PROTOCOL_DEFINITION('international standard',
'automotive_design',2009,#216);
#216=APPLICATION_CONTEXT(
'Core Data for Automotive Mechanical Design Process');
#217=PRODUCT_CONTEXT('part definition',#216,'mechanical');
#218=PRODUCT('leer','00012061','Kompakt Linearlager',(#217));
#219=PRESENTATION_STYLE_ASSIGNMENT((#220));
#220=SURFACE_STYLE_USAGE(.BOTH.,#223);
#221=SURFACE_STYLE_RENDERING_WITH_PROPERTIES($,#227,(#222));
#222=SURFACE_STYLE_TRANSPARENT(0.);
#223=SURFACE_SIDE_STYLE('',(#224,#221));
#224=SURFACE_STYLE_FILL_AREA(#225);
#225=FILL_AREA_STYLE('',(#226));
#226=FILL_AREA_STYLE_COLOUR('',#227);
#227=COLOUR_RGB('',0.87843137254902,0.874509803921569,0.858823529411765);
ENDSEC;
END-ISO-10303-21;
