ISO-10303-21;
HEADER;
/* Generated by software containing ST-Developer
 * from STEP Tools, Inc. (www.steptools.com) 
 */

FILE_DESCRIPTION(
/* description */ ('Flansch Linearlager/ Rundflansch nit Stahlk\X\E4fi
g'),
/* implementation_level */ '2;1');

FILE_NAME(
/* name */ '\\\\fileserver\\Daten2\\STEP Daten fuer PIM\\101595-0.step',

/* time_stamp */ '2021-09-03T10:23:12+02:00',
/* author */ ('Praktikum'),
/* organization */ (''),
/* preprocessor_version */ 'ST-DEVELOPER v18.1',
/* originating_system */ 'Autodesk Inventor 2021',
/* authorisation */ '');

FILE_SCHEMA (('AUTOMOTIVE_DESIGN { 1 0 10303 214 3 1 1 }'));
ENDSEC;

DATA;
#10=MECHANICAL_DESIGN_GEOMETRIC_PRESENTATION_REPRESENTATION('',(#13),#588);
#11=SHAPE_REPRESENTATION_RELATIONSHIP('SRR','None',#595,#12);
#12=ADVANCED_BREP_SHAPE_REPRESENTATION('',(#14),#587);
#13=STYLED_ITEM('',(#604),#14);
#14=MANIFOLD_SOLID_BREP('Volumenk\X\F6rper1',#323);
#15=CONICAL_SURFACE('',#351,30.75,0.785398163397447);
#16=CONICAL_SURFACE('',#362,30.75,0.785398163397446);
#17=FACE_BOUND('',#100,.T.);
#18=FACE_BOUND('',#104,.T.);
#19=FACE_BOUND('',#105,.T.);
#20=FACE_BOUND('',#106,.T.);
#21=FACE_BOUND('',#107,.T.);
#22=FACE_BOUND('',#108,.T.);
#23=FACE_BOUND('',#111,.T.);
#24=FACE_BOUND('',#112,.T.);
#25=FACE_BOUND('',#113,.T.);
#26=FACE_BOUND('',#114,.T.);
#27=FACE_BOUND('',#115,.T.);
#28=FACE_BOUND('',#117,.T.);
#29=FACE_BOUND('',#121,.T.);
#30=FACE_BOUND('',#125,.T.);
#31=FACE_BOUND('',#129,.T.);
#32=PLANE('',#349);
#33=PLANE('',#356);
#34=PLANE('',#364);
#35=PLANE('',#369);
#36=PLANE('',#374);
#37=PLANE('',#379);
#38=PLANE('',#384);
#39=LINE('',#508,#52);
#40=LINE('',#517,#53);
#41=LINE('',#522,#54);
#42=LINE('',#536,#55);
#43=LINE('',#553,#56);
#44=LINE('',#555,#57);
#45=LINE('',#562,#58);
#46=LINE('',#564,#59);
#47=LINE('',#571,#60);
#48=LINE('',#573,#61);
#49=LINE('',#580,#62);
#50=LINE('',#582,#63);
#51=LINE('',#584,#64);
#52=VECTOR('',#402,20.);
#53=VECTOR('',#413,30.75);
#54=VECTOR('',#420,31.);
#55=VECTOR('',#435,30.75);
#56=VECTOR('',#456,4.5);
#57=VECTOR('',#459,2.75);
#58=VECTOR('',#468,4.5);
#59=VECTOR('',#471,2.75);
#60=VECTOR('',#480,4.5);
#61=VECTOR('',#483,2.75);
#62=VECTOR('',#492,4.5);
#63=VECTOR('',#495,2.75);
#64=VECTOR('',#498,12.5);
#65=CYLINDRICAL_SURFACE('',#347,20.);
#66=CYLINDRICAL_SURFACE('',#354,31.);
#67=CYLINDRICAL_SURFACE('',#372,4.5);
#68=CYLINDRICAL_SURFACE('',#373,2.75);
#69=CYLINDRICAL_SURFACE('',#377,4.5);
#70=CYLINDRICAL_SURFACE('',#378,2.75);
#71=CYLINDRICAL_SURFACE('',#382,4.5);
#72=CYLINDRICAL_SURFACE('',#383,2.75);
#73=CYLINDRICAL_SURFACE('',#387,4.5);
#74=CYLINDRICAL_SURFACE('',#388,2.75);
#75=CYLINDRICAL_SURFACE('',#389,12.5);
#76=FACE_OUTER_BOUND('',#97,.T.);
#77=FACE_OUTER_BOUND('',#98,.T.);
#78=FACE_OUTER_BOUND('',#99,.T.);
#79=FACE_OUTER_BOUND('',#101,.T.);
#80=FACE_OUTER_BOUND('',#102,.T.);
#81=FACE_OUTER_BOUND('',#103,.T.);
#82=FACE_OUTER_BOUND('',#109,.T.);
#83=FACE_OUTER_BOUND('',#110,.T.);
#84=FACE_OUTER_BOUND('',#116,.T.);
#85=FACE_OUTER_BOUND('',#118,.T.);
#86=FACE_OUTER_BOUND('',#119,.T.);
#87=FACE_OUTER_BOUND('',#120,.T.);
#88=FACE_OUTER_BOUND('',#122,.T.);
#89=FACE_OUTER_BOUND('',#123,.T.);
#90=FACE_OUTER_BOUND('',#124,.T.);
#91=FACE_OUTER_BOUND('',#126,.T.);
#92=FACE_OUTER_BOUND('',#127,.T.);
#93=FACE_OUTER_BOUND('',#128,.T.);
#94=FACE_OUTER_BOUND('',#130,.T.);
#95=FACE_OUTER_BOUND('',#131,.T.);
#96=FACE_OUTER_BOUND('',#132,.T.);
#97=EDGE_LOOP('',(#223,#224,#225,#226));
#98=EDGE_LOOP('',(#227,#228,#229,#230));
#99=EDGE_LOOP('',(#231));
#100=EDGE_LOOP('',(#232));
#101=EDGE_LOOP('',(#233,#234,#235,#236));
#102=EDGE_LOOP('',(#237,#238,#239,#240));
#103=EDGE_LOOP('',(#241));
#104=EDGE_LOOP('',(#242));
#105=EDGE_LOOP('',(#243));
#106=EDGE_LOOP('',(#244));
#107=EDGE_LOOP('',(#245));
#108=EDGE_LOOP('',(#246));
#109=EDGE_LOOP('',(#247,#248,#249,#250));
#110=EDGE_LOOP('',(#251));
#111=EDGE_LOOP('',(#252));
#112=EDGE_LOOP('',(#253));
#113=EDGE_LOOP('',(#254));
#114=EDGE_LOOP('',(#255));
#115=EDGE_LOOP('',(#256));
#116=EDGE_LOOP('',(#257));
#117=EDGE_LOOP('',(#258));
#118=EDGE_LOOP('',(#259,#260,#261,#262));
#119=EDGE_LOOP('',(#263,#264,#265,#266));
#120=EDGE_LOOP('',(#267));
#121=EDGE_LOOP('',(#268));
#122=EDGE_LOOP('',(#269,#270,#271,#272));
#123=EDGE_LOOP('',(#273,#274,#275,#276));
#124=EDGE_LOOP('',(#277));
#125=EDGE_LOOP('',(#278));
#126=EDGE_LOOP('',(#279,#280,#281,#282));
#127=EDGE_LOOP('',(#283,#284,#285,#286));
#128=EDGE_LOOP('',(#287));
#129=EDGE_LOOP('',(#288));
#130=EDGE_LOOP('',(#289,#290,#291,#292));
#131=EDGE_LOOP('',(#293,#294,#295,#296));
#132=EDGE_LOOP('',(#297,#298,#299,#300));
#133=CIRCLE('',#344,20.);
#134=CIRCLE('',#345,0.25);
#135=CIRCLE('',#346,19.75);
#136=CIRCLE('',#348,20.);
#137=CIRCLE('',#350,12.5);
#138=CIRCLE('',#352,30.5);
#139=CIRCLE('',#353,31.);
#140=CIRCLE('',#355,31.);
#141=CIRCLE('',#357,12.5);
#142=CIRCLE('',#358,4.5);
#143=CIRCLE('',#359,4.5);
#144=CIRCLE('',#360,4.5);
#145=CIRCLE('',#361,4.5);
#146=CIRCLE('',#363,30.5);
#147=CIRCLE('',#365,2.75);
#148=CIRCLE('',#366,2.75);
#149=CIRCLE('',#367,2.75);
#150=CIRCLE('',#368,2.75);
#151=CIRCLE('',#370,4.5);
#152=CIRCLE('',#371,2.75);
#153=CIRCLE('',#375,4.5);
#154=CIRCLE('',#376,2.75);
#155=CIRCLE('',#380,4.5);
#156=CIRCLE('',#381,2.75);
#157=CIRCLE('',#385,4.5);
#158=CIRCLE('',#386,2.75);
#159=VERTEX_POINT('',#501);
#160=VERTEX_POINT('',#503);
#161=VERTEX_POINT('',#507);
#162=VERTEX_POINT('',#511);
#163=VERTEX_POINT('',#514);
#164=VERTEX_POINT('',#516);
#165=VERTEX_POINT('',#520);
#166=VERTEX_POINT('',#524);
#167=VERTEX_POINT('',#526);
#168=VERTEX_POINT('',#528);
#169=VERTEX_POINT('',#530);
#170=VERTEX_POINT('',#532);
#171=VERTEX_POINT('',#535);
#172=VERTEX_POINT('',#539);
#173=VERTEX_POINT('',#541);
#174=VERTEX_POINT('',#543);
#175=VERTEX_POINT('',#545);
#176=VERTEX_POINT('',#548);
#177=VERTEX_POINT('',#550);
#178=VERTEX_POINT('',#557);
#179=VERTEX_POINT('',#559);
#180=VERTEX_POINT('',#566);
#181=VERTEX_POINT('',#568);
#182=VERTEX_POINT('',#575);
#183=VERTEX_POINT('',#577);
#184=EDGE_CURVE('',#159,#159,#133,.T.);
#185=EDGE_CURVE('',#159,#160,#134,.T.);
#186=EDGE_CURVE('',#160,#160,#135,.T.);
#187=EDGE_CURVE('',#159,#161,#39,.T.);
#188=EDGE_CURVE('',#161,#161,#136,.T.);
#189=EDGE_CURVE('',#162,#162,#137,.T.);
#190=EDGE_CURVE('',#163,#163,#138,.T.);
#191=EDGE_CURVE('',#163,#164,#40,.T.);
#192=EDGE_CURVE('',#164,#164,#139,.T.);
#193=EDGE_CURVE('',#165,#165,#140,.T.);
#194=EDGE_CURVE('',#165,#164,#41,.T.);
#195=EDGE_CURVE('',#166,#166,#141,.T.);
#196=EDGE_CURVE('',#167,#167,#142,.T.);
#197=EDGE_CURVE('',#168,#168,#143,.T.);
#198=EDGE_CURVE('',#169,#169,#144,.T.);
#199=EDGE_CURVE('',#170,#170,#145,.T.);
#200=EDGE_CURVE('',#165,#171,#42,.T.);
#201=EDGE_CURVE('',#171,#171,#146,.T.);
#202=EDGE_CURVE('',#172,#172,#147,.T.);
#203=EDGE_CURVE('',#173,#173,#148,.T.);
#204=EDGE_CURVE('',#174,#174,#149,.T.);
#205=EDGE_CURVE('',#175,#175,#150,.T.);
#206=EDGE_CURVE('',#176,#176,#151,.T.);
#207=EDGE_CURVE('',#177,#177,#152,.T.);
#208=EDGE_CURVE('',#170,#176,#43,.T.);
#209=EDGE_CURVE('',#177,#175,#44,.T.);
#210=EDGE_CURVE('',#178,#178,#153,.T.);
#211=EDGE_CURVE('',#179,#179,#154,.T.);
#212=EDGE_CURVE('',#169,#178,#45,.T.);
#213=EDGE_CURVE('',#179,#174,#46,.T.);
#214=EDGE_CURVE('',#180,#180,#155,.T.);
#215=EDGE_CURVE('',#181,#181,#156,.T.);
#216=EDGE_CURVE('',#168,#180,#47,.T.);
#217=EDGE_CURVE('',#181,#173,#48,.T.);
#218=EDGE_CURVE('',#182,#182,#157,.T.);
#219=EDGE_CURVE('',#183,#183,#158,.T.);
#220=EDGE_CURVE('',#167,#182,#49,.T.);
#221=EDGE_CURVE('',#183,#172,#50,.T.);
#222=EDGE_CURVE('',#162,#166,#51,.T.);
#223=ORIENTED_EDGE('',*,*,#184,.T.);
#224=ORIENTED_EDGE('',*,*,#185,.T.);
#225=ORIENTED_EDGE('',*,*,#186,.T.);
#226=ORIENTED_EDGE('',*,*,#185,.F.);
#227=ORIENTED_EDGE('',*,*,#184,.F.);
#228=ORIENTED_EDGE('',*,*,#187,.T.);
#229=ORIENTED_EDGE('',*,*,#188,.F.);
#230=ORIENTED_EDGE('',*,*,#187,.F.);
#231=ORIENTED_EDGE('',*,*,#186,.F.);
#232=ORIENTED_EDGE('',*,*,#189,.T.);
#233=ORIENTED_EDGE('',*,*,#190,.T.);
#234=ORIENTED_EDGE('',*,*,#191,.T.);
#235=ORIENTED_EDGE('',*,*,#192,.T.);
#236=ORIENTED_EDGE('',*,*,#191,.F.);
#237=ORIENTED_EDGE('',*,*,#193,.F.);
#238=ORIENTED_EDGE('',*,*,#194,.T.);
#239=ORIENTED_EDGE('',*,*,#192,.F.);
#240=ORIENTED_EDGE('',*,*,#194,.F.);
#241=ORIENTED_EDGE('',*,*,#190,.F.);
#242=ORIENTED_EDGE('',*,*,#195,.T.);
#243=ORIENTED_EDGE('',*,*,#196,.T.);
#244=ORIENTED_EDGE('',*,*,#197,.T.);
#245=ORIENTED_EDGE('',*,*,#198,.T.);
#246=ORIENTED_EDGE('',*,*,#199,.T.);
#247=ORIENTED_EDGE('',*,*,#193,.T.);
#248=ORIENTED_EDGE('',*,*,#200,.T.);
#249=ORIENTED_EDGE('',*,*,#201,.T.);
#250=ORIENTED_EDGE('',*,*,#200,.F.);
#251=ORIENTED_EDGE('',*,*,#201,.F.);
#252=ORIENTED_EDGE('',*,*,#188,.T.);
#253=ORIENTED_EDGE('',*,*,#202,.T.);
#254=ORIENTED_EDGE('',*,*,#203,.T.);
#255=ORIENTED_EDGE('',*,*,#204,.T.);
#256=ORIENTED_EDGE('',*,*,#205,.T.);
#257=ORIENTED_EDGE('',*,*,#206,.T.);
#258=ORIENTED_EDGE('',*,*,#207,.F.);
#259=ORIENTED_EDGE('',*,*,#199,.F.);
#260=ORIENTED_EDGE('',*,*,#208,.T.);
#261=ORIENTED_EDGE('',*,*,#206,.F.);
#262=ORIENTED_EDGE('',*,*,#208,.F.);
#263=ORIENTED_EDGE('',*,*,#207,.T.);
#264=ORIENTED_EDGE('',*,*,#209,.T.);
#265=ORIENTED_EDGE('',*,*,#205,.F.);
#266=ORIENTED_EDGE('',*,*,#209,.F.);
#267=ORIENTED_EDGE('',*,*,#210,.T.);
#268=ORIENTED_EDGE('',*,*,#211,.F.);
#269=ORIENTED_EDGE('',*,*,#198,.F.);
#270=ORIENTED_EDGE('',*,*,#212,.T.);
#271=ORIENTED_EDGE('',*,*,#210,.F.);
#272=ORIENTED_EDGE('',*,*,#212,.F.);
#273=ORIENTED_EDGE('',*,*,#211,.T.);
#274=ORIENTED_EDGE('',*,*,#213,.T.);
#275=ORIENTED_EDGE('',*,*,#204,.F.);
#276=ORIENTED_EDGE('',*,*,#213,.F.);
#277=ORIENTED_EDGE('',*,*,#214,.T.);
#278=ORIENTED_EDGE('',*,*,#215,.F.);
#279=ORIENTED_EDGE('',*,*,#197,.F.);
#280=ORIENTED_EDGE('',*,*,#216,.T.);
#281=ORIENTED_EDGE('',*,*,#214,.F.);
#282=ORIENTED_EDGE('',*,*,#216,.F.);
#283=ORIENTED_EDGE('',*,*,#215,.T.);
#284=ORIENTED_EDGE('',*,*,#217,.T.);
#285=ORIENTED_EDGE('',*,*,#203,.F.);
#286=ORIENTED_EDGE('',*,*,#217,.F.);
#287=ORIENTED_EDGE('',*,*,#218,.T.);
#288=ORIENTED_EDGE('',*,*,#219,.F.);
#289=ORIENTED_EDGE('',*,*,#196,.F.);
#290=ORIENTED_EDGE('',*,*,#220,.T.);
#291=ORIENTED_EDGE('',*,*,#218,.F.);
#292=ORIENTED_EDGE('',*,*,#220,.F.);
#293=ORIENTED_EDGE('',*,*,#219,.T.);
#294=ORIENTED_EDGE('',*,*,#221,.T.);
#295=ORIENTED_EDGE('',*,*,#202,.F.);
#296=ORIENTED_EDGE('',*,*,#221,.F.);
#297=ORIENTED_EDGE('',*,*,#189,.F.);
#298=ORIENTED_EDGE('',*,*,#222,.T.);
#299=ORIENTED_EDGE('',*,*,#195,.F.);
#300=ORIENTED_EDGE('',*,*,#222,.F.);
#301=TOROIDAL_SURFACE('',#343,19.75,0.25);
#302=ADVANCED_FACE('',(#76),#301,.T.);
#303=ADVANCED_FACE('',(#77),#65,.T.);
#304=ADVANCED_FACE('',(#78,#17),#32,.F.);
#305=ADVANCED_FACE('',(#79),#15,.T.);
#306=ADVANCED_FACE('',(#80),#66,.T.);
#307=ADVANCED_FACE('',(#81,#18,#19,#20,#21,#22),#33,.T.);
#308=ADVANCED_FACE('',(#82),#16,.T.);
#309=ADVANCED_FACE('',(#83,#23,#24,#25,#26,#27),#34,.F.);
#310=ADVANCED_FACE('',(#84,#28),#35,.T.);
#311=ADVANCED_FACE('',(#85),#67,.F.);
#312=ADVANCED_FACE('',(#86),#68,.F.);
#313=ADVANCED_FACE('',(#87,#29),#36,.T.);
#314=ADVANCED_FACE('',(#88),#69,.F.);
#315=ADVANCED_FACE('',(#89),#70,.F.);
#316=ADVANCED_FACE('',(#90,#30),#37,.T.);
#317=ADVANCED_FACE('',(#91),#71,.F.);
#318=ADVANCED_FACE('',(#92),#72,.F.);
#319=ADVANCED_FACE('',(#93,#31),#38,.T.);
#320=ADVANCED_FACE('',(#94),#73,.F.);
#321=ADVANCED_FACE('',(#95),#74,.F.);
#322=ADVANCED_FACE('',(#96),#75,.F.);
#323=CLOSED_SHELL('',(#302,#303,#304,#305,#306,#307,#308,#309,#310,#311,
#312,#313,#314,#315,#316,#317,#318,#319,#320,#321,#322));
#324=DERIVED_UNIT_ELEMENT(#326,1.);
#325=DERIVED_UNIT_ELEMENT(#590,-3.);
#326=(
MASS_UNIT()
NAMED_UNIT(*)
SI_UNIT($,.GRAM.)
);
#327=DERIVED_UNIT((#324,#325));
#328=MEASURE_REPRESENTATION_ITEM('density measure',
POSITIVE_RATIO_MEASURE(7.85),#327);
#329=PROPERTY_DEFINITION_REPRESENTATION(#334,#331);
#330=PROPERTY_DEFINITION_REPRESENTATION(#335,#332);
#331=REPRESENTATION('material name',(#333),#587);
#332=REPRESENTATION('density',(#328),#587);
#333=DESCRIPTIVE_REPRESENTATION_ITEM('Stahl','Stahl');
#334=PROPERTY_DEFINITION('material property','material name',#597);
#335=PROPERTY_DEFINITION('material property','density of part',#597);
#336=DATE_TIME_ROLE('creation_date');
#337=APPLIED_DATE_AND_TIME_ASSIGNMENT(#338,#336,(#597));
#338=DATE_AND_TIME(#339,#340);
#339=CALENDAR_DATE(2009,6,5);
#340=LOCAL_TIME(0,0,0.,#341);
#341=COORDINATED_UNIVERSAL_TIME_OFFSET(0,0,.BEHIND.);
#342=AXIS2_PLACEMENT_3D('placement',#499,#390,#391);
#343=AXIS2_PLACEMENT_3D('',#500,#392,#393);
#344=AXIS2_PLACEMENT_3D('',#502,#394,#395);
#345=AXIS2_PLACEMENT_3D('',#504,#396,#397);
#346=AXIS2_PLACEMENT_3D('',#505,#398,#399);
#347=AXIS2_PLACEMENT_3D('',#506,#400,#401);
#348=AXIS2_PLACEMENT_3D('',#509,#403,#404);
#349=AXIS2_PLACEMENT_3D('',#510,#405,#406);
#350=AXIS2_PLACEMENT_3D('',#512,#407,#408);
#351=AXIS2_PLACEMENT_3D('',#513,#409,#410);
#352=AXIS2_PLACEMENT_3D('',#515,#411,#412);
#353=AXIS2_PLACEMENT_3D('',#518,#414,#415);
#354=AXIS2_PLACEMENT_3D('',#519,#416,#417);
#355=AXIS2_PLACEMENT_3D('',#521,#418,#419);
#356=AXIS2_PLACEMENT_3D('',#523,#421,#422);
#357=AXIS2_PLACEMENT_3D('',#525,#423,#424);
#358=AXIS2_PLACEMENT_3D('',#527,#425,#426);
#359=AXIS2_PLACEMENT_3D('',#529,#427,#428);
#360=AXIS2_PLACEMENT_3D('',#531,#429,#430);
#361=AXIS2_PLACEMENT_3D('',#533,#431,#432);
#362=AXIS2_PLACEMENT_3D('',#534,#433,#434);
#363=AXIS2_PLACEMENT_3D('',#537,#436,#437);
#364=AXIS2_PLACEMENT_3D('',#538,#438,#439);
#365=AXIS2_PLACEMENT_3D('',#540,#440,#441);
#366=AXIS2_PLACEMENT_3D('',#542,#442,#443);
#367=AXIS2_PLACEMENT_3D('',#544,#444,#445);
#368=AXIS2_PLACEMENT_3D('',#546,#446,#447);
#369=AXIS2_PLACEMENT_3D('',#547,#448,#449);
#370=AXIS2_PLACEMENT_3D('',#549,#450,#451);
#371=AXIS2_PLACEMENT_3D('',#551,#452,#453);
#372=AXIS2_PLACEMENT_3D('',#552,#454,#455);
#373=AXIS2_PLACEMENT_3D('',#554,#457,#458);
#374=AXIS2_PLACEMENT_3D('',#556,#460,#461);
#375=AXIS2_PLACEMENT_3D('',#558,#462,#463);
#376=AXIS2_PLACEMENT_3D('',#560,#464,#465);
#377=AXIS2_PLACEMENT_3D('',#561,#466,#467);
#378=AXIS2_PLACEMENT_3D('',#563,#469,#470);
#379=AXIS2_PLACEMENT_3D('',#565,#472,#473);
#380=AXIS2_PLACEMENT_3D('',#567,#474,#475);
#381=AXIS2_PLACEMENT_3D('',#569,#476,#477);
#382=AXIS2_PLACEMENT_3D('',#570,#478,#479);
#383=AXIS2_PLACEMENT_3D('',#572,#481,#482);
#384=AXIS2_PLACEMENT_3D('',#574,#484,#485);
#385=AXIS2_PLACEMENT_3D('',#576,#486,#487);
#386=AXIS2_PLACEMENT_3D('',#578,#488,#489);
#387=AXIS2_PLACEMENT_3D('',#579,#490,#491);
#388=AXIS2_PLACEMENT_3D('',#581,#493,#494);
#389=AXIS2_PLACEMENT_3D('',#583,#496,#497);
#390=DIRECTION('axis',(0.,0.,1.));
#391=DIRECTION('refdir',(1.,0.,0.));
#392=DIRECTION('center_axis',(0.,0.,-1.));
#393=DIRECTION('ref_axis',(-1.,0.,0.));
#394=DIRECTION('center_axis',(0.,0.,1.));
#395=DIRECTION('ref_axis',(-1.,0.,0.));
#396=DIRECTION('center_axis',(-1.22464679914735E-16,-1.,0.));
#397=DIRECTION('ref_axis',(1.,-1.22464679914735E-16,0.));
#398=DIRECTION('center_axis',(0.,0.,-1.));
#399=DIRECTION('ref_axis',(-1.,0.,0.));
#400=DIRECTION('center_axis',(0.,0.,1.));
#401=DIRECTION('ref_axis',(-1.,0.,0.));
#402=DIRECTION('',(0.,0.,-1.));
#403=DIRECTION('center_axis',(0.,0.,-1.));
#404=DIRECTION('ref_axis',(-1.,0.,0.));
#405=DIRECTION('center_axis',(0.,0.,-1.));
#406=DIRECTION('ref_axis',(-1.,0.,0.));
#407=DIRECTION('center_axis',(0.,0.,-1.));
#408=DIRECTION('ref_axis',(-1.,0.,0.));
#409=DIRECTION('center_axis',(0.,0.,1.));
#410=DIRECTION('ref_axis',(-1.,0.,0.));
#411=DIRECTION('center_axis',(0.,0.,1.));
#412=DIRECTION('ref_axis',(-1.,0.,0.));
#413=DIRECTION('',(0.707106781186546,-8.65956056235492E-17,0.707106781186549));
#414=DIRECTION('center_axis',(0.,0.,-1.));
#415=DIRECTION('ref_axis',(-1.,0.,0.));
#416=DIRECTION('center_axis',(0.,0.,1.));
#417=DIRECTION('ref_axis',(-1.,0.,0.));
#418=DIRECTION('center_axis',(0.,0.,1.));
#419=DIRECTION('ref_axis',(-1.,0.,0.));
#420=DIRECTION('',(0.,0.,-1.));
#421=DIRECTION('center_axis',(0.,0.,-1.));
#422=DIRECTION('ref_axis',(-1.,0.,0.));
#423=DIRECTION('center_axis',(0.,0.,1.));
#424=DIRECTION('ref_axis',(-1.,0.,0.));
#425=DIRECTION('center_axis',(0.,0.,1.));
#426=DIRECTION('ref_axis',(-1.,0.,0.));
#427=DIRECTION('center_axis',(0.,0.,1.));
#428=DIRECTION('ref_axis',(-1.,0.,0.));
#429=DIRECTION('center_axis',(0.,0.,1.));
#430=DIRECTION('ref_axis',(-1.,0.,0.));
#431=DIRECTION('center_axis',(0.,0.,1.));
#432=DIRECTION('ref_axis',(-1.,0.,0.));
#433=DIRECTION('center_axis',(0.,0.,-1.));
#434=DIRECTION('ref_axis',(-1.,0.,0.));
#435=DIRECTION('',(-0.707106781186546,8.65956056235491E-17,0.707106781186549));
#436=DIRECTION('center_axis',(0.,0.,-1.));
#437=DIRECTION('ref_axis',(-1.,0.,0.));
#438=DIRECTION('center_axis',(0.,0.,-1.));
#439=DIRECTION('ref_axis',(-1.,0.,0.));
#440=DIRECTION('center_axis',(0.,0.,-1.));
#441=DIRECTION('ref_axis',(-1.,0.,0.));
#442=DIRECTION('center_axis',(0.,0.,-1.));
#443=DIRECTION('ref_axis',(-1.,0.,0.));
#444=DIRECTION('center_axis',(0.,0.,-1.));
#445=DIRECTION('ref_axis',(-1.,0.,0.));
#446=DIRECTION('center_axis',(0.,0.,-1.));
#447=DIRECTION('ref_axis',(-1.,0.,0.));
#448=DIRECTION('center_axis',(0.,0.,-1.));
#449=DIRECTION('ref_axis',(-1.,0.,0.));
#450=DIRECTION('center_axis',(0.,0.,-1.));
#451=DIRECTION('ref_axis',(-1.,0.,0.));
#452=DIRECTION('center_axis',(0.,0.,-1.));
#453=DIRECTION('ref_axis',(-1.,0.,0.));
#454=DIRECTION('center_axis',(0.,0.,-1.));
#455=DIRECTION('ref_axis',(-1.,0.,0.));
#456=DIRECTION('',(0.,0.,1.));
#457=DIRECTION('center_axis',(0.,0.,-1.));
#458=DIRECTION('ref_axis',(-1.,0.,0.));
#459=DIRECTION('',(0.,0.,1.));
#460=DIRECTION('center_axis',(0.,0.,-1.));
#461=DIRECTION('ref_axis',(-1.,0.,0.));
#462=DIRECTION('center_axis',(0.,0.,-1.));
#463=DIRECTION('ref_axis',(-1.,0.,0.));
#464=DIRECTION('center_axis',(0.,0.,-1.));
#465=DIRECTION('ref_axis',(-1.,0.,0.));
#466=DIRECTION('center_axis',(0.,0.,-1.));
#467=DIRECTION('ref_axis',(-1.,0.,0.));
#468=DIRECTION('',(0.,0.,1.));
#469=DIRECTION('center_axis',(0.,0.,-1.));
#470=DIRECTION('ref_axis',(-1.,0.,0.));
#471=DIRECTION('',(0.,0.,1.));
#472=DIRECTION('center_axis',(0.,0.,-1.));
#473=DIRECTION('ref_axis',(-1.,0.,0.));
#474=DIRECTION('center_axis',(0.,0.,-1.));
#475=DIRECTION('ref_axis',(-1.,0.,0.));
#476=DIRECTION('center_axis',(0.,0.,-1.));
#477=DIRECTION('ref_axis',(-1.,0.,0.));
#478=DIRECTION('center_axis',(0.,0.,-1.));
#479=DIRECTION('ref_axis',(-1.,0.,0.));
#480=DIRECTION('',(0.,0.,1.));
#481=DIRECTION('center_axis',(0.,0.,-1.));
#482=DIRECTION('ref_axis',(-1.,0.,0.));
#483=DIRECTION('',(0.,0.,1.));
#484=DIRECTION('center_axis',(0.,0.,-1.));
#485=DIRECTION('ref_axis',(-1.,0.,0.));
#486=DIRECTION('center_axis',(0.,0.,-1.));
#487=DIRECTION('ref_axis',(-1.,0.,0.));
#488=DIRECTION('center_axis',(0.,0.,-1.));
#489=DIRECTION('ref_axis',(-1.,0.,0.));
#490=DIRECTION('center_axis',(0.,0.,-1.));
#491=DIRECTION('ref_axis',(-1.,0.,0.));
#492=DIRECTION('',(0.,0.,1.));
#493=DIRECTION('center_axis',(0.,0.,-1.));
#494=DIRECTION('ref_axis',(-1.,0.,0.));
#495=DIRECTION('',(0.,0.,1.));
#496=DIRECTION('center_axis',(0.,0.,-1.));
#497=DIRECTION('ref_axis',(-1.,0.,0.));
#498=DIRECTION('',(0.,0.,-1.));
#499=CARTESIAN_POINT('',(0.,0.,0.));
#500=CARTESIAN_POINT('Origin',(0.,0.,57.75));
#501=CARTESIAN_POINT('',(20.,2.44921270764475E-15,57.75));
#502=CARTESIAN_POINT('Origin',(0.,0.,57.75));
#503=CARTESIAN_POINT('',(19.75,-2.4185975487992E-15,58.));
#504=CARTESIAN_POINT('Origin',(19.75,-2.41867742831602E-15,57.75));
#505=CARTESIAN_POINT('Origin',(0.,0.,58.));
#506=CARTESIAN_POINT('Origin',(0.,0.,8.));
#507=CARTESIAN_POINT('',(20.,2.44929359829471E-15,8.));
#508=CARTESIAN_POINT('',(20.,2.44929359829471E-15,8.));
#509=CARTESIAN_POINT('Origin',(0.,0.,8.));
#510=CARTESIAN_POINT('Origin',(0.,0.,58.));
#511=CARTESIAN_POINT('',(12.5,1.53080849893419E-15,58.));
#512=CARTESIAN_POINT('Origin',(0.,0.,58.));
#513=CARTESIAN_POINT('Origin',(0.,0.,0.25));
#514=CARTESIAN_POINT('',(30.5,3.73504937915825E-15,0.));
#515=CARTESIAN_POINT('Origin',(0.,0.,0.));
#516=CARTESIAN_POINT('',(31.,-3.79627969684937E-15,0.5));
#517=CARTESIAN_POINT('',(30.75,-3.76578890737811E-15,0.25));
#518=CARTESIAN_POINT('Origin',(0.,0.,0.5));
#519=CARTESIAN_POINT('Origin',(0.,0.,0.));
#520=CARTESIAN_POINT('',(31.,3.79627969684937E-15,7.5));
#521=CARTESIAN_POINT('Origin',(0.,0.,7.5));
#522=CARTESIAN_POINT('',(31.,3.7964050773568E-15,0.));
#523=CARTESIAN_POINT('Origin',(0.,0.,0.));
#524=CARTESIAN_POINT('',(12.5,1.53075794227797E-15,0.));
#525=CARTESIAN_POINT('Origin',(0.,0.,0.));
#526=CARTESIAN_POINT('',(30.,-5.51091059616309E-16,0.));
#527=CARTESIAN_POINT('Origin',(25.5,0.,0.));
#528=CARTESIAN_POINT('',(4.5,25.5,0.));
#529=CARTESIAN_POINT('Origin',(0.,25.5,0.));
#530=CARTESIAN_POINT('',(-21.,-5.51091059616309E-16,0.));
#531=CARTESIAN_POINT('Origin',(-25.5,0.,0.));
#532=CARTESIAN_POINT('',(4.5,-25.5,0.));
#533=CARTESIAN_POINT('Origin',(0.,-25.5,0.));
#534=CARTESIAN_POINT('Origin',(0.,0.,7.75));
#535=CARTESIAN_POINT('',(30.5,-3.73504937915825E-15,8.));
#536=CARTESIAN_POINT('',(30.75,-3.76578890737811E-15,7.75));
#537=CARTESIAN_POINT('Origin',(0.,0.,8.));
#538=CARTESIAN_POINT('Origin',(0.,0.,8.));
#539=CARTESIAN_POINT('',(28.25,-3.36766747301154E-16,8.00000000000001));
#540=CARTESIAN_POINT('Origin',(25.5,0.,8.00000000000001));
#541=CARTESIAN_POINT('',(2.75,25.5,8.00000000000001));
#542=CARTESIAN_POINT('Origin',(0.,25.5,8.00000000000001));
#543=CARTESIAN_POINT('',(-22.75,-3.36766747301154E-16,8.00000000000001));
#544=CARTESIAN_POINT('Origin',(-25.5,0.,8.00000000000001));
#545=CARTESIAN_POINT('',(2.75,-25.5,8.00000000000001));
#546=CARTESIAN_POINT('Origin',(0.,-25.5,8.00000000000001));
#547=CARTESIAN_POINT('Origin',(0.,-25.5,5.1));
#548=CARTESIAN_POINT('',(4.5,-25.5,5.1));
#549=CARTESIAN_POINT('Origin',(0.,-25.5,5.1));
#550=CARTESIAN_POINT('',(2.75,-25.5,5.1));
#551=CARTESIAN_POINT('Origin',(0.,-25.5,5.1));
#552=CARTESIAN_POINT('Origin',(0.,-25.5,2.55));
#553=CARTESIAN_POINT('',(4.5,-25.5,2.55));
#554=CARTESIAN_POINT('Origin',(0.,-25.5,105.128492807611));
#555=CARTESIAN_POINT('',(2.75,-25.5,105.128492807611));
#556=CARTESIAN_POINT('Origin',(-25.5,0.,5.1));
#557=CARTESIAN_POINT('',(-21.,-5.51091059616309E-16,5.1));
#558=CARTESIAN_POINT('Origin',(-25.5,0.,5.1));
#559=CARTESIAN_POINT('',(-22.75,-3.36766747301154E-16,5.1));
#560=CARTESIAN_POINT('Origin',(-25.5,0.,5.1));
#561=CARTESIAN_POINT('Origin',(-25.5,0.,2.55));
#562=CARTESIAN_POINT('',(-21.,-5.51091059616309E-16,2.55));
#563=CARTESIAN_POINT('Origin',(-25.5,0.,105.128492807611));
#564=CARTESIAN_POINT('',(-22.75,-3.36777869765522E-16,105.128492807611));
#565=CARTESIAN_POINT('Origin',(0.,25.5,5.1));
#566=CARTESIAN_POINT('',(4.5,25.5,5.1));
#567=CARTESIAN_POINT('Origin',(0.,25.5,5.1));
#568=CARTESIAN_POINT('',(2.75,25.5,5.1));
#569=CARTESIAN_POINT('Origin',(0.,25.5,5.1));
#570=CARTESIAN_POINT('Origin',(0.,25.5,2.55));
#571=CARTESIAN_POINT('',(4.5,25.5,2.55));
#572=CARTESIAN_POINT('Origin',(0.,25.5,105.128492807611));
#573=CARTESIAN_POINT('',(2.75,25.5,105.128492807611));
#574=CARTESIAN_POINT('Origin',(25.5,0.,5.1));
#575=CARTESIAN_POINT('',(30.,-5.51091059616309E-16,5.1));
#576=CARTESIAN_POINT('Origin',(25.5,0.,5.1));
#577=CARTESIAN_POINT('',(28.25,-3.36766747301154E-16,5.1));
#578=CARTESIAN_POINT('Origin',(25.5,0.,5.1));
#579=CARTESIAN_POINT('Origin',(25.5,0.,2.55));
#580=CARTESIAN_POINT('',(30.,-5.51091059616309E-16,2.55));
#581=CARTESIAN_POINT('Origin',(25.5,0.,105.128492807611));
#582=CARTESIAN_POINT('',(28.25,-3.36777869765522E-16,105.128492807611));
#583=CARTESIAN_POINT('Origin',(0.,0.,58.));
#584=CARTESIAN_POINT('',(12.5,-1.53080849893419E-15,58.));
#585=UNCERTAINTY_MEASURE_WITH_UNIT(LENGTH_MEASURE(0.01),#589,
'DISTANCE_ACCURACY_VALUE',
'Maximum model space distance between geometric entities at asserted c
onnectivities');
#586=UNCERTAINTY_MEASURE_WITH_UNIT(LENGTH_MEASURE(0.01),#589,
'DISTANCE_ACCURACY_VALUE',
'Maximum model space distance between geometric entities at asserted c
onnectivities');
#587=(
GEOMETRIC_REPRESENTATION_CONTEXT(3)
GLOBAL_UNCERTAINTY_ASSIGNED_CONTEXT((#585))
GLOBAL_UNIT_ASSIGNED_CONTEXT((#589,#591,#592))
REPRESENTATION_CONTEXT('','3D')
);
#588=(
GEOMETRIC_REPRESENTATION_CONTEXT(3)
GLOBAL_UNCERTAINTY_ASSIGNED_CONTEXT((#586))
GLOBAL_UNIT_ASSIGNED_CONTEXT((#589,#591,#592))
REPRESENTATION_CONTEXT('','3D')
);
#589=(
LENGTH_UNIT()
NAMED_UNIT(*)
SI_UNIT(.MILLI.,.METRE.)
);
#590=(
LENGTH_UNIT()
NAMED_UNIT(*)
SI_UNIT(.CENTI.,.METRE.)
);
#591=(
NAMED_UNIT(*)
PLANE_ANGLE_UNIT()
SI_UNIT($,.RADIAN.)
);
#592=(
NAMED_UNIT(*)
SI_UNIT($,.STERADIAN.)
SOLID_ANGLE_UNIT()
);
#593=SHAPE_DEFINITION_REPRESENTATION(#594,#595);
#594=PRODUCT_DEFINITION_SHAPE('',$,#597);
#595=SHAPE_REPRESENTATION('',(#342),#587);
#596=PRODUCT_DEFINITION_CONTEXT('part definition',#601,'design');
#597=PRODUCT_DEFINITION('leer','00011957',#598,#596);
#598=PRODUCT_DEFINITION_FORMATION('',$,#603);
#599=PRODUCT_RELATED_PRODUCT_CATEGORY('00011957','00011957',(#603));
#600=APPLICATION_PROTOCOL_DEFINITION('international standard',
'automotive_design',2009,#601);
#601=APPLICATION_CONTEXT(
'Core Data for Automotive Mechanical Design Process');
#602=PRODUCT_CONTEXT('part definition',#601,'mechanical');
#603=PRODUCT('leer','00011957',
'Flansch Linearlager/ Rundflansch nit Stahlk\X\E4fig',(#602));
#604=PRESENTATION_STYLE_ASSIGNMENT((#605));
#605=SURFACE_STYLE_USAGE(.BOTH.,#608);
#606=SURFACE_STYLE_RENDERING_WITH_PROPERTIES($,#612,(#607));
#607=SURFACE_STYLE_TRANSPARENT(0.);
#608=SURFACE_SIDE_STYLE('',(#609,#606));
#609=SURFACE_STYLE_FILL_AREA(#610);
#610=FILL_AREA_STYLE('',(#611));
#611=FILL_AREA_STYLE_COLOUR('',#612);
#612=COLOUR_RGB('',0.87843137254902,0.874509803921569,0.858823529411765);
ENDSEC;
END-ISO-10303-21;
