ISO-10303-21;
HEADER;
/* Generated by software containing ST-Developer
 * from STEP Tools, Inc. (www.steptools.com) 
 */

FILE_DESCRIPTION(
/* description */ ('Rundflansch mit Kunststoffk\X\E4fig'),
/* implementation_level */ '2;1');

FILE_NAME(
/* name */ '\\\\fileserver\\Daten2\\STEP Daten fuer PIM\\101523-0.step',

/* time_stamp */ '2021-09-03T09:41:07+02:00',
/* author */ ('Praktikum'),
/* organization */ (''),
/* preprocessor_version */ 'ST-DEVELOPER v18.1',
/* originating_system */ 'Autodesk Inventor 2021',
/* authorisation */ '');

FILE_SCHEMA (('AUTOMOTIVE_DESIGN { 1 0 10303 214 3 1 1 }'));
ENDSEC;

DATA;
#10=MECHANICAL_DESIGN_GEOMETRIC_PRESENTATION_REPRESENTATION('',(#13),#617);
#11=SHAPE_REPRESENTATION_RELATIONSHIP('SRR','None',#624,#12);
#12=ADVANCED_BREP_SHAPE_REPRESENTATION('',(#14),#616);
#13=STYLED_ITEM('',(#633),#14);
#14=MANIFOLD_SOLID_BREP('Volumenk\X\F6rper1',#339);
#15=FACE_BOUND('',#72,.T.);
#16=FACE_BOUND('',#76,.T.);
#17=FACE_BOUND('',#77,.T.);
#18=FACE_BOUND('',#78,.T.);
#19=FACE_BOUND('',#79,.T.);
#20=FACE_BOUND('',#80,.T.);
#21=FACE_BOUND('',#83,.T.);
#22=FACE_BOUND('',#84,.T.);
#23=FACE_BOUND('',#85,.T.);
#24=FACE_BOUND('',#86,.T.);
#25=FACE_BOUND('',#87,.T.);
#26=FACE_BOUND('',#89,.T.);
#27=FACE_BOUND('',#93,.T.);
#28=FACE_BOUND('',#97,.T.);
#29=FACE_BOUND('',#101,.T.);
#30=PLANE('',#365);
#31=PLANE('',#374);
#32=PLANE('',#382);
#33=PLANE('',#387);
#34=PLANE('',#392);
#35=PLANE('',#397);
#36=PLANE('',#402);
#37=CYLINDRICAL_SURFACE('',#363,23.5);
#38=CYLINDRICAL_SURFACE('',#371,38.);
#39=CYLINDRICAL_SURFACE('',#390,5.5);
#40=CYLINDRICAL_SURFACE('',#391,3.3);
#41=CYLINDRICAL_SURFACE('',#395,5.5);
#42=CYLINDRICAL_SURFACE('',#396,3.3);
#43=CYLINDRICAL_SURFACE('',#400,5.5);
#44=CYLINDRICAL_SURFACE('',#401,3.3);
#45=CYLINDRICAL_SURFACE('',#405,5.5);
#46=CYLINDRICAL_SURFACE('',#406,3.3);
#47=CYLINDRICAL_SURFACE('',#407,15.);
#48=FACE_OUTER_BOUND('',#69,.T.);
#49=FACE_OUTER_BOUND('',#70,.T.);
#50=FACE_OUTER_BOUND('',#71,.T.);
#51=FACE_OUTER_BOUND('',#73,.T.);
#52=FACE_OUTER_BOUND('',#74,.T.);
#53=FACE_OUTER_BOUND('',#75,.T.);
#54=FACE_OUTER_BOUND('',#81,.T.);
#55=FACE_OUTER_BOUND('',#82,.T.);
#56=FACE_OUTER_BOUND('',#88,.T.);
#57=FACE_OUTER_BOUND('',#90,.T.);
#58=FACE_OUTER_BOUND('',#91,.T.);
#59=FACE_OUTER_BOUND('',#92,.T.);
#60=FACE_OUTER_BOUND('',#94,.T.);
#61=FACE_OUTER_BOUND('',#95,.T.);
#62=FACE_OUTER_BOUND('',#96,.T.);
#63=FACE_OUTER_BOUND('',#98,.T.);
#64=FACE_OUTER_BOUND('',#99,.T.);
#65=FACE_OUTER_BOUND('',#100,.T.);
#66=FACE_OUTER_BOUND('',#102,.T.);
#67=FACE_OUTER_BOUND('',#103,.T.);
#68=FACE_OUTER_BOUND('',#104,.T.);
#69=EDGE_LOOP('',(#231,#232,#233,#234,#235));
#70=EDGE_LOOP('',(#236,#237,#238,#239,#240));
#71=EDGE_LOOP('',(#241));
#72=EDGE_LOOP('',(#242));
#73=EDGE_LOOP('',(#243,#244,#245,#246,#247));
#74=EDGE_LOOP('',(#248,#249,#250,#251,#252,#253));
#75=EDGE_LOOP('',(#254));
#76=EDGE_LOOP('',(#255));
#77=EDGE_LOOP('',(#256));
#78=EDGE_LOOP('',(#257));
#79=EDGE_LOOP('',(#258));
#80=EDGE_LOOP('',(#259));
#81=EDGE_LOOP('',(#260,#261,#262,#263,#264));
#82=EDGE_LOOP('',(#265));
#83=EDGE_LOOP('',(#266));
#84=EDGE_LOOP('',(#267));
#85=EDGE_LOOP('',(#268));
#86=EDGE_LOOP('',(#269));
#87=EDGE_LOOP('',(#270));
#88=EDGE_LOOP('',(#271));
#89=EDGE_LOOP('',(#272));
#90=EDGE_LOOP('',(#273,#274,#275,#276));
#91=EDGE_LOOP('',(#277,#278,#279,#280));
#92=EDGE_LOOP('',(#281));
#93=EDGE_LOOP('',(#282));
#94=EDGE_LOOP('',(#283,#284,#285,#286));
#95=EDGE_LOOP('',(#287,#288,#289,#290));
#96=EDGE_LOOP('',(#291));
#97=EDGE_LOOP('',(#292));
#98=EDGE_LOOP('',(#293,#294,#295,#296));
#99=EDGE_LOOP('',(#297,#298,#299,#300));
#100=EDGE_LOOP('',(#301));
#101=EDGE_LOOP('',(#302));
#102=EDGE_LOOP('',(#303,#304,#305,#306));
#103=EDGE_LOOP('',(#307,#308,#309,#310));
#104=EDGE_LOOP('',(#311,#312,#313,#314));
#105=LINE('',#527,#119);
#106=LINE('',#533,#120);
#107=LINE('',#544,#121);
#108=LINE('',#551,#122);
#109=LINE('',#566,#123);
#110=LINE('',#582,#124);
#111=LINE('',#584,#125);
#112=LINE('',#591,#126);
#113=LINE('',#593,#127);
#114=LINE('',#600,#128);
#115=LINE('',#602,#129);
#116=LINE('',#609,#130);
#117=LINE('',#611,#131);
#118=LINE('',#613,#132);
#119=VECTOR('',#414,23.25);
#120=VECTOR('',#421,23.5);
#121=VECTOR('',#434,37.75);
#122=VECTOR('',#443,38.);
#123=VECTOR('',#460,37.75);
#124=VECTOR('',#479,5.5);
#125=VECTOR('',#482,3.3);
#126=VECTOR('',#491,5.5);
#127=VECTOR('',#494,3.3);
#128=VECTOR('',#503,5.5);
#129=VECTOR('',#506,3.3);
#130=VECTOR('',#515,5.5);
#131=VECTOR('',#518,3.3);
#132=VECTOR('',#521,15.);
#133=CIRCLE('',#360,23.);
#134=CIRCLE('',#361,23.5);
#135=CIRCLE('',#362,23.5);
#136=CIRCLE('',#364,23.5);
#137=CIRCLE('',#366,15.);
#138=CIRCLE('',#368,38.);
#139=CIRCLE('',#369,38.);
#140=CIRCLE('',#370,37.5);
#141=CIRCLE('',#372,38.);
#142=CIRCLE('',#373,38.);
#143=CIRCLE('',#375,15.);
#144=CIRCLE('',#376,5.5);
#145=CIRCLE('',#377,5.5);
#146=CIRCLE('',#378,5.5);
#147=CIRCLE('',#379,5.5);
#148=CIRCLE('',#381,37.5);
#149=CIRCLE('',#383,3.3);
#150=CIRCLE('',#384,3.3);
#151=CIRCLE('',#385,3.3);
#152=CIRCLE('',#386,3.3);
#153=CIRCLE('',#388,5.5);
#154=CIRCLE('',#389,3.3);
#155=CIRCLE('',#393,5.5);
#156=CIRCLE('',#394,3.3);
#157=CIRCLE('',#398,5.5);
#158=CIRCLE('',#399,3.3);
#159=CIRCLE('',#403,5.5);
#160=CIRCLE('',#404,3.3);
#161=VERTEX_POINT('',#524);
#162=VERTEX_POINT('',#526);
#163=VERTEX_POINT('',#528);
#164=VERTEX_POINT('',#532);
#165=VERTEX_POINT('',#536);
#166=VERTEX_POINT('',#539);
#167=VERTEX_POINT('',#540);
#168=VERTEX_POINT('',#543);
#169=VERTEX_POINT('',#547);
#170=VERTEX_POINT('',#548);
#171=VERTEX_POINT('',#553);
#172=VERTEX_POINT('',#555);
#173=VERTEX_POINT('',#557);
#174=VERTEX_POINT('',#559);
#175=VERTEX_POINT('',#561);
#176=VERTEX_POINT('',#564);
#177=VERTEX_POINT('',#568);
#178=VERTEX_POINT('',#570);
#179=VERTEX_POINT('',#572);
#180=VERTEX_POINT('',#574);
#181=VERTEX_POINT('',#577);
#182=VERTEX_POINT('',#579);
#183=VERTEX_POINT('',#586);
#184=VERTEX_POINT('',#588);
#185=VERTEX_POINT('',#595);
#186=VERTEX_POINT('',#597);
#187=VERTEX_POINT('',#604);
#188=VERTEX_POINT('',#606);
#189=EDGE_CURVE('',#161,#161,#133,.T.);
#190=EDGE_CURVE('',#161,#162,#105,.T.);
#191=EDGE_CURVE('',#162,#163,#134,.T.);
#192=EDGE_CURVE('',#163,#162,#135,.T.);
#193=EDGE_CURVE('',#163,#164,#106,.T.);
#194=EDGE_CURVE('',#164,#164,#136,.T.);
#195=EDGE_CURVE('',#165,#165,#137,.T.);
#196=EDGE_CURVE('',#166,#167,#138,.T.);
#197=EDGE_CURVE('',#167,#166,#139,.T.);
#198=EDGE_CURVE('',#166,#168,#107,.T.);
#199=EDGE_CURVE('',#168,#168,#140,.T.);
#200=EDGE_CURVE('',#169,#170,#141,.T.);
#201=EDGE_CURVE('',#170,#169,#142,.T.);
#202=EDGE_CURVE('',#170,#167,#108,.T.);
#203=EDGE_CURVE('',#171,#171,#143,.T.);
#204=EDGE_CURVE('',#172,#172,#144,.T.);
#205=EDGE_CURVE('',#173,#173,#145,.T.);
#206=EDGE_CURVE('',#174,#174,#146,.T.);
#207=EDGE_CURVE('',#175,#175,#147,.T.);
#208=EDGE_CURVE('',#176,#176,#148,.T.);
#209=EDGE_CURVE('',#176,#169,#109,.T.);
#210=EDGE_CURVE('',#177,#177,#149,.T.);
#211=EDGE_CURVE('',#178,#178,#150,.T.);
#212=EDGE_CURVE('',#179,#179,#151,.T.);
#213=EDGE_CURVE('',#180,#180,#152,.T.);
#214=EDGE_CURVE('',#181,#181,#153,.T.);
#215=EDGE_CURVE('',#182,#182,#154,.T.);
#216=EDGE_CURVE('',#175,#181,#110,.T.);
#217=EDGE_CURVE('',#182,#180,#111,.T.);
#218=EDGE_CURVE('',#183,#183,#155,.T.);
#219=EDGE_CURVE('',#184,#184,#156,.T.);
#220=EDGE_CURVE('',#174,#183,#112,.T.);
#221=EDGE_CURVE('',#184,#179,#113,.T.);
#222=EDGE_CURVE('',#185,#185,#157,.T.);
#223=EDGE_CURVE('',#186,#186,#158,.T.);
#224=EDGE_CURVE('',#173,#185,#114,.T.);
#225=EDGE_CURVE('',#186,#178,#115,.T.);
#226=EDGE_CURVE('',#187,#187,#159,.T.);
#227=EDGE_CURVE('',#188,#188,#160,.T.);
#228=EDGE_CURVE('',#172,#187,#116,.T.);
#229=EDGE_CURVE('',#188,#177,#117,.T.);
#230=EDGE_CURVE('',#165,#171,#118,.T.);
#231=ORIENTED_EDGE('',*,*,#189,.T.);
#232=ORIENTED_EDGE('',*,*,#190,.T.);
#233=ORIENTED_EDGE('',*,*,#191,.T.);
#234=ORIENTED_EDGE('',*,*,#192,.T.);
#235=ORIENTED_EDGE('',*,*,#190,.F.);
#236=ORIENTED_EDGE('',*,*,#191,.F.);
#237=ORIENTED_EDGE('',*,*,#192,.F.);
#238=ORIENTED_EDGE('',*,*,#193,.T.);
#239=ORIENTED_EDGE('',*,*,#194,.T.);
#240=ORIENTED_EDGE('',*,*,#193,.F.);
#241=ORIENTED_EDGE('',*,*,#189,.F.);
#242=ORIENTED_EDGE('',*,*,#195,.F.);
#243=ORIENTED_EDGE('',*,*,#196,.T.);
#244=ORIENTED_EDGE('',*,*,#197,.T.);
#245=ORIENTED_EDGE('',*,*,#198,.T.);
#246=ORIENTED_EDGE('',*,*,#199,.T.);
#247=ORIENTED_EDGE('',*,*,#198,.F.);
#248=ORIENTED_EDGE('',*,*,#200,.F.);
#249=ORIENTED_EDGE('',*,*,#201,.F.);
#250=ORIENTED_EDGE('',*,*,#202,.T.);
#251=ORIENTED_EDGE('',*,*,#196,.F.);
#252=ORIENTED_EDGE('',*,*,#197,.F.);
#253=ORIENTED_EDGE('',*,*,#202,.F.);
#254=ORIENTED_EDGE('',*,*,#199,.F.);
#255=ORIENTED_EDGE('',*,*,#203,.T.);
#256=ORIENTED_EDGE('',*,*,#204,.T.);
#257=ORIENTED_EDGE('',*,*,#205,.T.);
#258=ORIENTED_EDGE('',*,*,#206,.T.);
#259=ORIENTED_EDGE('',*,*,#207,.T.);
#260=ORIENTED_EDGE('',*,*,#208,.T.);
#261=ORIENTED_EDGE('',*,*,#209,.T.);
#262=ORIENTED_EDGE('',*,*,#200,.T.);
#263=ORIENTED_EDGE('',*,*,#201,.T.);
#264=ORIENTED_EDGE('',*,*,#209,.F.);
#265=ORIENTED_EDGE('',*,*,#208,.F.);
#266=ORIENTED_EDGE('',*,*,#194,.F.);
#267=ORIENTED_EDGE('',*,*,#210,.T.);
#268=ORIENTED_EDGE('',*,*,#211,.T.);
#269=ORIENTED_EDGE('',*,*,#212,.T.);
#270=ORIENTED_EDGE('',*,*,#213,.T.);
#271=ORIENTED_EDGE('',*,*,#214,.T.);
#272=ORIENTED_EDGE('',*,*,#215,.F.);
#273=ORIENTED_EDGE('',*,*,#207,.F.);
#274=ORIENTED_EDGE('',*,*,#216,.T.);
#275=ORIENTED_EDGE('',*,*,#214,.F.);
#276=ORIENTED_EDGE('',*,*,#216,.F.);
#277=ORIENTED_EDGE('',*,*,#215,.T.);
#278=ORIENTED_EDGE('',*,*,#217,.T.);
#279=ORIENTED_EDGE('',*,*,#213,.F.);
#280=ORIENTED_EDGE('',*,*,#217,.F.);
#281=ORIENTED_EDGE('',*,*,#218,.T.);
#282=ORIENTED_EDGE('',*,*,#219,.F.);
#283=ORIENTED_EDGE('',*,*,#206,.F.);
#284=ORIENTED_EDGE('',*,*,#220,.T.);
#285=ORIENTED_EDGE('',*,*,#218,.F.);
#286=ORIENTED_EDGE('',*,*,#220,.F.);
#287=ORIENTED_EDGE('',*,*,#219,.T.);
#288=ORIENTED_EDGE('',*,*,#221,.T.);
#289=ORIENTED_EDGE('',*,*,#212,.F.);
#290=ORIENTED_EDGE('',*,*,#221,.F.);
#291=ORIENTED_EDGE('',*,*,#222,.T.);
#292=ORIENTED_EDGE('',*,*,#223,.F.);
#293=ORIENTED_EDGE('',*,*,#205,.F.);
#294=ORIENTED_EDGE('',*,*,#224,.T.);
#295=ORIENTED_EDGE('',*,*,#222,.F.);
#296=ORIENTED_EDGE('',*,*,#224,.F.);
#297=ORIENTED_EDGE('',*,*,#223,.T.);
#298=ORIENTED_EDGE('',*,*,#225,.T.);
#299=ORIENTED_EDGE('',*,*,#211,.F.);
#300=ORIENTED_EDGE('',*,*,#225,.F.);
#301=ORIENTED_EDGE('',*,*,#226,.T.);
#302=ORIENTED_EDGE('',*,*,#227,.F.);
#303=ORIENTED_EDGE('',*,*,#204,.F.);
#304=ORIENTED_EDGE('',*,*,#228,.T.);
#305=ORIENTED_EDGE('',*,*,#226,.F.);
#306=ORIENTED_EDGE('',*,*,#228,.F.);
#307=ORIENTED_EDGE('',*,*,#227,.T.);
#308=ORIENTED_EDGE('',*,*,#229,.T.);
#309=ORIENTED_EDGE('',*,*,#210,.F.);
#310=ORIENTED_EDGE('',*,*,#229,.F.);
#311=ORIENTED_EDGE('',*,*,#195,.T.);
#312=ORIENTED_EDGE('',*,*,#230,.T.);
#313=ORIENTED_EDGE('',*,*,#203,.F.);
#314=ORIENTED_EDGE('',*,*,#230,.F.);
#315=CONICAL_SURFACE('',#359,23.25,0.785398163397435);
#316=CONICAL_SURFACE('',#367,37.75,0.785398163397448);
#317=CONICAL_SURFACE('',#380,37.75,0.785398163397448);
#318=ADVANCED_FACE('',(#48),#315,.T.);
#319=ADVANCED_FACE('',(#49),#37,.T.);
#320=ADVANCED_FACE('',(#50,#15),#30,.T.);
#321=ADVANCED_FACE('',(#51),#316,.T.);
#322=ADVANCED_FACE('',(#52),#38,.T.);
#323=ADVANCED_FACE('',(#53,#16,#17,#18,#19,#20),#31,.T.);
#324=ADVANCED_FACE('',(#54),#317,.T.);
#325=ADVANCED_FACE('',(#55,#21,#22,#23,#24,#25),#32,.T.);
#326=ADVANCED_FACE('',(#56,#26),#33,.T.);
#327=ADVANCED_FACE('',(#57),#39,.F.);
#328=ADVANCED_FACE('',(#58),#40,.F.);
#329=ADVANCED_FACE('',(#59,#27),#34,.T.);
#330=ADVANCED_FACE('',(#60),#41,.F.);
#331=ADVANCED_FACE('',(#61),#42,.F.);
#332=ADVANCED_FACE('',(#62,#28),#35,.T.);
#333=ADVANCED_FACE('',(#63),#43,.F.);
#334=ADVANCED_FACE('',(#64),#44,.F.);
#335=ADVANCED_FACE('',(#65,#29),#36,.T.);
#336=ADVANCED_FACE('',(#66),#45,.F.);
#337=ADVANCED_FACE('',(#67),#46,.F.);
#338=ADVANCED_FACE('',(#68),#47,.F.);
#339=CLOSED_SHELL('',(#318,#319,#320,#321,#322,#323,#324,#325,#326,#327,
#328,#329,#330,#331,#332,#333,#334,#335,#336,#337,#338));
#340=DERIVED_UNIT_ELEMENT(#342,1.);
#341=DERIVED_UNIT_ELEMENT(#619,-3.);
#342=(
MASS_UNIT()
NAMED_UNIT(*)
SI_UNIT($,.GRAM.)
);
#343=DERIVED_UNIT((#340,#341));
#344=MEASURE_REPRESENTATION_ITEM('density measure',
POSITIVE_RATIO_MEASURE(7.85),#343);
#345=PROPERTY_DEFINITION_REPRESENTATION(#350,#347);
#346=PROPERTY_DEFINITION_REPRESENTATION(#351,#348);
#347=REPRESENTATION('material name',(#349),#616);
#348=REPRESENTATION('density',(#344),#616);
#349=DESCRIPTIVE_REPRESENTATION_ITEM('Stahl','Stahl');
#350=PROPERTY_DEFINITION('material property','material name',#626);
#351=PROPERTY_DEFINITION('material property','density of part',#626);
#352=DATE_TIME_ROLE('creation_date');
#353=APPLIED_DATE_AND_TIME_ASSIGNMENT(#354,#352,(#626));
#354=DATE_AND_TIME(#355,#356);
#355=CALENDAR_DATE(2009,5,5);
#356=LOCAL_TIME(0,0,0.,#357);
#357=COORDINATED_UNIVERSAL_TIME_OFFSET(0,0,.BEHIND.);
#358=AXIS2_PLACEMENT_3D('placement',#522,#408,#409);
#359=AXIS2_PLACEMENT_3D('',#523,#410,#411);
#360=AXIS2_PLACEMENT_3D('',#525,#412,#413);
#361=AXIS2_PLACEMENT_3D('',#529,#415,#416);
#362=AXIS2_PLACEMENT_3D('',#530,#417,#418);
#363=AXIS2_PLACEMENT_3D('',#531,#419,#420);
#364=AXIS2_PLACEMENT_3D('',#534,#422,#423);
#365=AXIS2_PLACEMENT_3D('',#535,#424,#425);
#366=AXIS2_PLACEMENT_3D('',#537,#426,#427);
#367=AXIS2_PLACEMENT_3D('',#538,#428,#429);
#368=AXIS2_PLACEMENT_3D('',#541,#430,#431);
#369=AXIS2_PLACEMENT_3D('',#542,#432,#433);
#370=AXIS2_PLACEMENT_3D('',#545,#435,#436);
#371=AXIS2_PLACEMENT_3D('',#546,#437,#438);
#372=AXIS2_PLACEMENT_3D('',#549,#439,#440);
#373=AXIS2_PLACEMENT_3D('',#550,#441,#442);
#374=AXIS2_PLACEMENT_3D('',#552,#444,#445);
#375=AXIS2_PLACEMENT_3D('',#554,#446,#447);
#376=AXIS2_PLACEMENT_3D('',#556,#448,#449);
#377=AXIS2_PLACEMENT_3D('',#558,#450,#451);
#378=AXIS2_PLACEMENT_3D('',#560,#452,#453);
#379=AXIS2_PLACEMENT_3D('',#562,#454,#455);
#380=AXIS2_PLACEMENT_3D('',#563,#456,#457);
#381=AXIS2_PLACEMENT_3D('',#565,#458,#459);
#382=AXIS2_PLACEMENT_3D('',#567,#461,#462);
#383=AXIS2_PLACEMENT_3D('',#569,#463,#464);
#384=AXIS2_PLACEMENT_3D('',#571,#465,#466);
#385=AXIS2_PLACEMENT_3D('',#573,#467,#468);
#386=AXIS2_PLACEMENT_3D('',#575,#469,#470);
#387=AXIS2_PLACEMENT_3D('',#576,#471,#472);
#388=AXIS2_PLACEMENT_3D('',#578,#473,#474);
#389=AXIS2_PLACEMENT_3D('',#580,#475,#476);
#390=AXIS2_PLACEMENT_3D('',#581,#477,#478);
#391=AXIS2_PLACEMENT_3D('',#583,#480,#481);
#392=AXIS2_PLACEMENT_3D('',#585,#483,#484);
#393=AXIS2_PLACEMENT_3D('',#587,#485,#486);
#394=AXIS2_PLACEMENT_3D('',#589,#487,#488);
#395=AXIS2_PLACEMENT_3D('',#590,#489,#490);
#396=AXIS2_PLACEMENT_3D('',#592,#492,#493);
#397=AXIS2_PLACEMENT_3D('',#594,#495,#496);
#398=AXIS2_PLACEMENT_3D('',#596,#497,#498);
#399=AXIS2_PLACEMENT_3D('',#598,#499,#500);
#400=AXIS2_PLACEMENT_3D('',#599,#501,#502);
#401=AXIS2_PLACEMENT_3D('',#601,#504,#505);
#402=AXIS2_PLACEMENT_3D('',#603,#507,#508);
#403=AXIS2_PLACEMENT_3D('',#605,#509,#510);
#404=AXIS2_PLACEMENT_3D('',#607,#511,#512);
#405=AXIS2_PLACEMENT_3D('',#608,#513,#514);
#406=AXIS2_PLACEMENT_3D('',#610,#516,#517);
#407=AXIS2_PLACEMENT_3D('',#612,#519,#520);
#408=DIRECTION('axis',(0.,0.,1.));
#409=DIRECTION('refdir',(1.,0.,0.));
#410=DIRECTION('center_axis',(-1.,0.,0.));
#411=DIRECTION('ref_axis',(0.,-1.,0.));
#412=DIRECTION('center_axis',(-1.,0.,0.));
#413=DIRECTION('ref_axis',(0.,-1.,0.));
#414=DIRECTION('',(-0.707106781186557,0.707106781186538,8.65956056235482E-17));
#415=DIRECTION('center_axis',(1.,0.,0.));
#416=DIRECTION('ref_axis',(0.,-1.,0.));
#417=DIRECTION('center_axis',(1.,0.,0.));
#418=DIRECTION('ref_axis',(0.,-1.,0.));
#419=DIRECTION('center_axis',(1.,0.,0.));
#420=DIRECTION('ref_axis',(0.,1.,0.));
#421=DIRECTION('',(-1.,0.,0.));
#422=DIRECTION('center_axis',(1.,0.,0.));
#423=DIRECTION('ref_axis',(0.,1.,0.));
#424=DIRECTION('center_axis',(1.,0.,0.));
#425=DIRECTION('ref_axis',(0.,0.,-1.));
#426=DIRECTION('center_axis',(1.,0.,0.));
#427=DIRECTION('ref_axis',(0.,1.,0.));
#428=DIRECTION('center_axis',(1.,0.,0.));
#429=DIRECTION('ref_axis',(0.,-1.,0.));
#430=DIRECTION('center_axis',(-1.,0.,0.));
#431=DIRECTION('ref_axis',(0.,-1.,0.));
#432=DIRECTION('center_axis',(-1.,0.,0.));
#433=DIRECTION('ref_axis',(0.,-1.,0.));
#434=DIRECTION('',(-0.707106781186548,-0.707106781186548,-8.65956056235493E-17));
#435=DIRECTION('center_axis',(1.,0.,0.));
#436=DIRECTION('ref_axis',(0.,-1.,0.));
#437=DIRECTION('center_axis',(1.,0.,0.));
#438=DIRECTION('ref_axis',(0.,1.,0.));
#439=DIRECTION('center_axis',(1.,0.,0.));
#440=DIRECTION('ref_axis',(0.,-1.,0.));
#441=DIRECTION('center_axis',(1.,0.,0.));
#442=DIRECTION('ref_axis',(0.,-1.,0.));
#443=DIRECTION('',(-1.,0.,0.));
#444=DIRECTION('center_axis',(-1.,0.,0.));
#445=DIRECTION('ref_axis',(0.,0.,1.));
#446=DIRECTION('center_axis',(1.,0.,0.));
#447=DIRECTION('ref_axis',(0.,1.,0.));
#448=DIRECTION('center_axis',(1.,0.,0.));
#449=DIRECTION('ref_axis',(0.,0.,1.));
#450=DIRECTION('center_axis',(1.,0.,0.));
#451=DIRECTION('ref_axis',(0.,0.,1.));
#452=DIRECTION('center_axis',(1.,0.,0.));
#453=DIRECTION('ref_axis',(0.,0.,1.));
#454=DIRECTION('center_axis',(1.,0.,0.));
#455=DIRECTION('ref_axis',(0.,0.,1.));
#456=DIRECTION('center_axis',(-1.,0.,0.));
#457=DIRECTION('ref_axis',(0.,-1.,0.));
#458=DIRECTION('center_axis',(-1.,0.,0.));
#459=DIRECTION('ref_axis',(0.,-1.,0.));
#460=DIRECTION('',(-0.707106781186548,0.707106781186548,8.65956056235493E-17));
#461=DIRECTION('center_axis',(1.,0.,0.));
#462=DIRECTION('ref_axis',(0.,0.,-1.));
#463=DIRECTION('center_axis',(-1.,0.,0.));
#464=DIRECTION('ref_axis',(0.,0.,1.));
#465=DIRECTION('center_axis',(-1.,0.,0.));
#466=DIRECTION('ref_axis',(0.,0.,1.));
#467=DIRECTION('center_axis',(-1.,0.,0.));
#468=DIRECTION('ref_axis',(0.,0.,1.));
#469=DIRECTION('center_axis',(-1.,0.,0.));
#470=DIRECTION('ref_axis',(0.,0.,1.));
#471=DIRECTION('center_axis',(-1.,0.,0.));
#472=DIRECTION('ref_axis',(0.,0.,1.));
#473=DIRECTION('center_axis',(-1.,0.,0.));
#474=DIRECTION('ref_axis',(0.,0.,1.));
#475=DIRECTION('center_axis',(-1.,0.,0.));
#476=DIRECTION('ref_axis',(0.,0.,1.));
#477=DIRECTION('center_axis',(-1.,0.,0.));
#478=DIRECTION('ref_axis',(0.,0.,1.));
#479=DIRECTION('',(1.,0.,0.));
#480=DIRECTION('center_axis',(-1.,0.,0.));
#481=DIRECTION('ref_axis',(0.,0.,1.));
#482=DIRECTION('',(1.,0.,0.));
#483=DIRECTION('center_axis',(-1.,0.,0.));
#484=DIRECTION('ref_axis',(0.,0.,1.));
#485=DIRECTION('center_axis',(-1.,0.,0.));
#486=DIRECTION('ref_axis',(0.,0.,1.));
#487=DIRECTION('center_axis',(-1.,0.,0.));
#488=DIRECTION('ref_axis',(0.,0.,1.));
#489=DIRECTION('center_axis',(-1.,0.,0.));
#490=DIRECTION('ref_axis',(0.,0.,1.));
#491=DIRECTION('',(1.,0.,0.));
#492=DIRECTION('center_axis',(-1.,0.,0.));
#493=DIRECTION('ref_axis',(0.,0.,1.));
#494=DIRECTION('',(1.,0.,0.));
#495=DIRECTION('center_axis',(-1.,0.,0.));
#496=DIRECTION('ref_axis',(0.,0.,1.));
#497=DIRECTION('center_axis',(-1.,0.,0.));
#498=DIRECTION('ref_axis',(0.,0.,1.));
#499=DIRECTION('center_axis',(-1.,0.,0.));
#500=DIRECTION('ref_axis',(0.,0.,1.));
#501=DIRECTION('center_axis',(-1.,0.,0.));
#502=DIRECTION('ref_axis',(0.,0.,1.));
#503=DIRECTION('',(1.,0.,0.));
#504=DIRECTION('center_axis',(-1.,0.,0.));
#505=DIRECTION('ref_axis',(0.,0.,1.));
#506=DIRECTION('',(1.,0.,0.));
#507=DIRECTION('center_axis',(-1.,0.,0.));
#508=DIRECTION('ref_axis',(0.,0.,1.));
#509=DIRECTION('center_axis',(-1.,0.,0.));
#510=DIRECTION('ref_axis',(0.,0.,1.));
#511=DIRECTION('center_axis',(-1.,0.,0.));
#512=DIRECTION('ref_axis',(0.,0.,1.));
#513=DIRECTION('center_axis',(-1.,0.,0.));
#514=DIRECTION('ref_axis',(0.,0.,1.));
#515=DIRECTION('',(1.,0.,0.));
#516=DIRECTION('center_axis',(-1.,0.,0.));
#517=DIRECTION('ref_axis',(0.,0.,1.));
#518=DIRECTION('',(1.,0.,0.));
#519=DIRECTION('center_axis',(1.,0.,0.));
#520=DIRECTION('ref_axis',(0.,1.,0.));
#521=DIRECTION('',(-1.,0.,0.));
#522=CARTESIAN_POINT('',(0.,0.,0.));
#523=CARTESIAN_POINT('Origin',(61.25,0.,0.));
#524=CARTESIAN_POINT('',(61.5,23.,-2.81659461379147E-15));
#525=CARTESIAN_POINT('Origin',(61.5,0.,0.));
#526=CARTESIAN_POINT('',(61.,23.5,2.87782493148259E-15));
#527=CARTESIAN_POINT('',(61.25,23.25,2.8473038080176E-15));
#528=CARTESIAN_POINT('',(61.,-23.5,-2.87791997799628E-15));
#529=CARTESIAN_POINT('Origin',(61.,0.,0.));
#530=CARTESIAN_POINT('Origin',(61.,0.,0.));
#531=CARTESIAN_POINT('Origin',(5.,0.,0.));
#532=CARTESIAN_POINT('',(-51.5,-23.5,-2.87791997799628E-15));
#533=CARTESIAN_POINT('',(5.,-23.5,-2.87791997799628E-15));
#534=CARTESIAN_POINT('Origin',(-51.5,0.,0.));
#535=CARTESIAN_POINT('Origin',(61.5,19.25,0.));
#536=CARTESIAN_POINT('',(61.5,-15.,-1.83697019872103E-15));
#537=CARTESIAN_POINT('Origin',(61.5,0.,0.));
#538=CARTESIAN_POINT('Origin',(-61.25,0.,0.));
#539=CARTESIAN_POINT('',(-61.,38.,-4.65350414452503E-15));
#540=CARTESIAN_POINT('',(-61.,-38.,-4.65365783675994E-15));
#541=CARTESIAN_POINT('Origin',(-61.,0.,0.));
#542=CARTESIAN_POINT('Origin',(-61.,0.,0.));
#543=CARTESIAN_POINT('',(-61.5,37.5,4.59227382683391E-15));
#544=CARTESIAN_POINT('',(-61.25,37.75,4.62304166678126E-15));
#545=CARTESIAN_POINT('Origin',(-61.5,0.,0.));
#546=CARTESIAN_POINT('Origin',(-56.5,0.,0.));
#547=CARTESIAN_POINT('',(-52.,38.,4.65350414452503E-15));
#548=CARTESIAN_POINT('',(-52.,-38.,-4.65365783675994E-15));
#549=CARTESIAN_POINT('Origin',(-52.,0.,0.));
#550=CARTESIAN_POINT('Origin',(-52.,0.,0.));
#551=CARTESIAN_POINT('',(-56.5,-38.,-4.65365783675994E-15));
#552=CARTESIAN_POINT('Origin',(-61.5,26.5,0.));
#553=CARTESIAN_POINT('',(-61.5,-15.,-1.83697019872103E-15));
#554=CARTESIAN_POINT('Origin',(-61.5,0.,0.));
#555=CARTESIAN_POINT('',(-61.5,31.,-5.5));
#556=CARTESIAN_POINT('Origin',(-61.5,31.,0.));
#557=CARTESIAN_POINT('',(-61.5,-6.73555739531044E-16,25.5));
#558=CARTESIAN_POINT('Origin',(-61.5,0.,31.));
#559=CARTESIAN_POINT('',(-61.5,-31.,-5.5));
#560=CARTESIAN_POINT('Origin',(-61.5,-31.,0.));
#561=CARTESIAN_POINT('',(-61.5,-6.73555739531044E-16,-36.5));
#562=CARTESIAN_POINT('Origin',(-61.5,0.,-31.));
#563=CARTESIAN_POINT('Origin',(-51.75,0.,0.));
#564=CARTESIAN_POINT('',(-51.5,37.5,-4.59227382683391E-15));
#565=CARTESIAN_POINT('Origin',(-51.5,0.,0.));
#566=CARTESIAN_POINT('',(-51.75,37.75,4.62304166678126E-15));
#567=CARTESIAN_POINT('Origin',(-51.5,30.75,0.));
#568=CARTESIAN_POINT('',(-51.5,31.,-3.3));
#569=CARTESIAN_POINT('Origin',(-51.5,31.,0.));
#570=CARTESIAN_POINT('',(-51.5,-4.04120096761385E-16,27.7));
#571=CARTESIAN_POINT('Origin',(-51.5,0.,31.));
#572=CARTESIAN_POINT('',(-51.5,-31.,-3.3));
#573=CARTESIAN_POINT('Origin',(-51.5,-31.,0.));
#574=CARTESIAN_POINT('',(-51.5,-4.04120096761385E-16,-34.3));
#575=CARTESIAN_POINT('Origin',(-51.5,0.,-31.));
#576=CARTESIAN_POINT('Origin',(-55.4,0.,-31.));
#577=CARTESIAN_POINT('',(-55.4,-6.73555739531044E-16,-36.5));
#578=CARTESIAN_POINT('Origin',(-55.4,0.,-31.));
#579=CARTESIAN_POINT('',(-55.4,-4.04120096761385E-16,-34.3));
#580=CARTESIAN_POINT('Origin',(-55.4,0.,-31.));
#581=CARTESIAN_POINT('Origin',(-58.45,0.,-31.));
#582=CARTESIAN_POINT('',(-58.45,-6.73555739531044E-16,-36.5));
#583=CARTESIAN_POINT('Origin',(101.84319698108,0.,-31.));
#584=CARTESIAN_POINT('',(101.84319698108,-4.04133443718627E-16,-34.3));
#585=CARTESIAN_POINT('Origin',(-55.4,-31.,0.));
#586=CARTESIAN_POINT('',(-55.4,-31.,-5.5));
#587=CARTESIAN_POINT('Origin',(-55.4,-31.,0.));
#588=CARTESIAN_POINT('',(-55.4,-31.,-3.3));
#589=CARTESIAN_POINT('Origin',(-55.4,-31.,0.));
#590=CARTESIAN_POINT('Origin',(-58.45,-31.,0.));
#591=CARTESIAN_POINT('',(-58.45,-31.,-5.5));
#592=CARTESIAN_POINT('Origin',(101.84319698108,-31.,0.));
#593=CARTESIAN_POINT('',(101.84319698108,-31.,-3.3));
#594=CARTESIAN_POINT('Origin',(-55.4,0.,31.));
#595=CARTESIAN_POINT('',(-55.4,-6.73555739531044E-16,25.5));
#596=CARTESIAN_POINT('Origin',(-55.4,0.,31.));
#597=CARTESIAN_POINT('',(-55.4,-4.04120096761385E-16,27.7));
#598=CARTESIAN_POINT('Origin',(-55.4,0.,31.));
#599=CARTESIAN_POINT('Origin',(-58.45,0.,31.));
#600=CARTESIAN_POINT('',(-58.45,-6.73555739531044E-16,25.5));
#601=CARTESIAN_POINT('Origin',(101.84319698108,0.,31.));
#602=CARTESIAN_POINT('',(101.84319698108,-4.04133443718627E-16,27.7));
#603=CARTESIAN_POINT('Origin',(-55.4,31.,0.));
#604=CARTESIAN_POINT('',(-55.4,31.,-5.5));
#605=CARTESIAN_POINT('Origin',(-55.4,31.,0.));
#606=CARTESIAN_POINT('',(-55.4,31.,-3.3));
#607=CARTESIAN_POINT('Origin',(-55.4,31.,0.));
#608=CARTESIAN_POINT('Origin',(-58.45,31.,0.));
#609=CARTESIAN_POINT('',(-58.45,31.,-5.5));
#610=CARTESIAN_POINT('Origin',(101.84319698108,31.,0.));
#611=CARTESIAN_POINT('',(101.84319698108,31.,-3.3));
#612=CARTESIAN_POINT('Origin',(0.,0.,0.));
#613=CARTESIAN_POINT('',(0.,-15.,-1.83697019872103E-15));
#614=UNCERTAINTY_MEASURE_WITH_UNIT(LENGTH_MEASURE(0.01),#618,
'DISTANCE_ACCURACY_VALUE',
'Maximum model space distance between geometric entities at asserted c
onnectivities');
#615=UNCERTAINTY_MEASURE_WITH_UNIT(LENGTH_MEASURE(0.01),#618,
'DISTANCE_ACCURACY_VALUE',
'Maximum model space distance between geometric entities at asserted c
onnectivities');
#616=(
GEOMETRIC_REPRESENTATION_CONTEXT(3)
GLOBAL_UNCERTAINTY_ASSIGNED_CONTEXT((#614))
GLOBAL_UNIT_ASSIGNED_CONTEXT((#618,#620,#621))
REPRESENTATION_CONTEXT('','3D')
);
#617=(
GEOMETRIC_REPRESENTATION_CONTEXT(3)
GLOBAL_UNCERTAINTY_ASSIGNED_CONTEXT((#615))
GLOBAL_UNIT_ASSIGNED_CONTEXT((#618,#620,#621))
REPRESENTATION_CONTEXT('','3D')
);
#618=(
LENGTH_UNIT()
NAMED_UNIT(*)
SI_UNIT(.MILLI.,.METRE.)
);
#619=(
LENGTH_UNIT()
NAMED_UNIT(*)
SI_UNIT(.CENTI.,.METRE.)
);
#620=(
NAMED_UNIT(*)
PLANE_ANGLE_UNIT()
SI_UNIT($,.RADIAN.)
);
#621=(
NAMED_UNIT(*)
SI_UNIT($,.STERADIAN.)
SOLID_ANGLE_UNIT()
);
#622=SHAPE_DEFINITION_REPRESENTATION(#623,#624);
#623=PRODUCT_DEFINITION_SHAPE('',$,#626);
#624=SHAPE_REPRESENTATION('',(#358),#616);
#625=PRODUCT_DEFINITION_CONTEXT('part definition',#630,'design');
#626=PRODUCT_DEFINITION('leer','00011817',#627,#625);
#627=PRODUCT_DEFINITION_FORMATION('',$,#632);
#628=PRODUCT_RELATED_PRODUCT_CATEGORY('00011817','00011817',(#632));
#629=APPLICATION_PROTOCOL_DEFINITION('international standard',
'automotive_design',2009,#630);
#630=APPLICATION_CONTEXT(
'Core Data for Automotive Mechanical Design Process');
#631=PRODUCT_CONTEXT('part definition',#630,'mechanical');
#632=PRODUCT('leer','00011817','Rundflansch mit Kunststoffk\X\E4fig',(#631));
#633=PRESENTATION_STYLE_ASSIGNMENT((#634));
#634=SURFACE_STYLE_USAGE(.BOTH.,#637);
#635=SURFACE_STYLE_RENDERING_WITH_PROPERTIES($,#641,(#636));
#636=SURFACE_STYLE_TRANSPARENT(0.);
#637=SURFACE_SIDE_STYLE('',(#638,#635));
#638=SURFACE_STYLE_FILL_AREA(#639);
#639=FILL_AREA_STYLE('',(#640));
#640=FILL_AREA_STYLE_COLOUR('',#641);
#641=COLOUR_RGB('',0.87843137254902,0.874509803921569,0.858823529411765);
ENDSEC;
END-ISO-10303-21;
