ISO-10303-21;
HEADER;
/* Generated by software containing ST-Developer
 * from STEP Tools, Inc. (www.steptools.com) 
 */

FILE_DESCRIPTION(
/* description */ (
'Gross Linearlager mit Stahlk\X\E4fig geschlitzt beidseitig abgedichte
t'),
/* implementation_level */ '2;1');

FILE_NAME(
/* name */ '\\\\fileserver\\Daten2\\STEP Daten fuer PIM\\101381-0.step',

/* time_stamp */ '2021-09-03T07:55:23+02:00',
/* author */ ('Praktikum'),
/* organization */ (''),
/* preprocessor_version */ 'ST-DEVELOPER v18.1',
/* originating_system */ 'Autodesk Inventor 2021',
/* authorisation */ '');

FILE_SCHEMA (('AUTOMOTIVE_DESIGN { 1 0 10303 214 3 1 1 }'));
ENDSEC;

DATA;
#10=MECHANICAL_DESIGN_GEOMETRIC_PRESENTATION_REPRESENTATION('',(#13),#561);
#11=SHAPE_REPRESENTATION_RELATIONSHIP('SRR','None',#568,#12);
#12=ADVANCED_BREP_SHAPE_REPRESENTATION('',(#14),#560);
#13=STYLED_ITEM('',(#577),#14);
#14=MANIFOLD_SOLID_BREP('Volumenk\X\F6rper1',#299);
#15=TOROIDAL_SURFACE('',#334,59.,1.);
#16=TOROIDAL_SURFACE('',#341,59.,1.);
#17=CYLINDRICAL_SURFACE('',#324,60.);
#18=CYLINDRICAL_SURFACE('',#328,58.);
#19=CYLINDRICAL_SURFACE('',#332,60.);
#20=CYLINDRICAL_SURFACE('',#337,60.);
#21=CYLINDRICAL_SURFACE('',#345,58.);
#22=CYLINDRICAL_SURFACE('',#348,40.);
#23=CIRCLE('',#322,60.);
#24=CIRCLE('',#323,58.);
#25=CIRCLE('',#325,60.);
#26=CIRCLE('',#327,58.);
#27=CIRCLE('',#329,58.);
#28=CIRCLE('',#331,60.);
#29=CIRCLE('',#333,60.);
#30=CIRCLE('',#335,60.);
#31=CIRCLE('',#336,59.);
#32=CIRCLE('',#338,60.);
#33=CIRCLE('',#340,40.);
#34=CIRCLE('',#342,59.);
#35=CIRCLE('',#344,40.);
#36=CIRCLE('',#346,58.);
#37=FACE_OUTER_BOUND('',#53,.T.);
#38=FACE_OUTER_BOUND('',#54,.T.);
#39=FACE_OUTER_BOUND('',#55,.T.);
#40=FACE_OUTER_BOUND('',#56,.T.);
#41=FACE_OUTER_BOUND('',#57,.T.);
#42=FACE_OUTER_BOUND('',#58,.T.);
#43=FACE_OUTER_BOUND('',#59,.T.);
#44=FACE_OUTER_BOUND('',#60,.T.);
#45=FACE_OUTER_BOUND('',#61,.T.);
#46=FACE_OUTER_BOUND('',#62,.T.);
#47=FACE_OUTER_BOUND('',#63,.T.);
#48=FACE_OUTER_BOUND('',#64,.T.);
#49=FACE_OUTER_BOUND('',#65,.T.);
#50=FACE_OUTER_BOUND('',#66,.T.);
#51=FACE_OUTER_BOUND('',#67,.T.);
#52=FACE_OUTER_BOUND('',#68,.T.);
#53=EDGE_LOOP('',(#191,#192,#193,#194,#195,#196,#197,#198,#199,#200,#201,
#202,#203,#204));
#54=EDGE_LOOP('',(#205,#206,#207,#208,#209,#210,#211,#212,#213,#214,#215,
#216,#217,#218));
#55=EDGE_LOOP('',(#219,#220,#221,#222));
#56=EDGE_LOOP('',(#223,#224,#225,#226));
#57=EDGE_LOOP('',(#227,#228,#229,#230));
#58=EDGE_LOOP('',(#231,#232,#233,#234));
#59=EDGE_LOOP('',(#235,#236,#237,#238));
#60=EDGE_LOOP('',(#239,#240,#241,#242));
#61=EDGE_LOOP('',(#243,#244,#245,#246));
#62=EDGE_LOOP('',(#247,#248,#249,#250));
#63=EDGE_LOOP('',(#251,#252,#253,#254));
#64=EDGE_LOOP('',(#255,#256,#257,#258));
#65=EDGE_LOOP('',(#259,#260,#261,#262));
#66=EDGE_LOOP('',(#263,#264,#265,#266));
#67=EDGE_LOOP('',(#267,#268,#269,#270));
#68=EDGE_LOOP('',(#271,#272,#273,#274));
#69=B_SPLINE_CURVE_WITH_KNOTS('',3,(#451,#452,#453,#454,#455,#456,#457,
#458,#459,#460),.UNSPECIFIED.,.F.,.F.,(4,2,2,2,4),(-0.148119863031181,-0.111080099384291,
-0.0740465740645269,-0.0370203302607095,0.),.UNSPECIFIED.);
#70=B_SPLINE_CURVE_WITH_KNOTS('',3,(#468,#469,#470,#471,#472,#473,#474,
#475,#476,#477),.UNSPECIFIED.,.F.,.F.,(4,2,2,2,4),(0.,0.0370203302607095,
0.0740465740645269,0.111080099384291,0.148119863031181),.UNSPECIFIED.);
#71=B_SPLINE_CURVE_WITH_KNOTS('',3,(#494,#495,#496,#497,#498,#499,#500,
#501,#502,#503),.UNSPECIFIED.,.F.,.F.,(4,2,2,2,4),(-0.14811986303118,-0.111080099384291,
-0.0740465740645274,-0.0370203302607088,0.),.UNSPECIFIED.);
#72=B_SPLINE_CURVE_WITH_KNOTS('',3,(#511,#512,#513,#514,#515,#516,#517,
#518,#519,#520),.UNSPECIFIED.,.F.,.F.,(4,2,2,2,4),(0.,0.0370203302607098,
0.0740465740645262,0.11108009938429,0.148119863031181),.UNSPECIFIED.);
#73=LINE('',#439,#97);
#74=LINE('',#441,#98);
#75=LINE('',#443,#99);
#76=LINE('',#445,#100);
#77=LINE('',#447,#101);
#78=LINE('',#449,#102);
#79=LINE('',#462,#103);
#80=LINE('',#464,#104);
#81=LINE('',#466,#105);
#82=LINE('',#479,#106);
#83=LINE('',#481,#107);
#84=LINE('',#482,#108);
#85=LINE('',#486,#109);
#86=LINE('',#488,#110);
#87=LINE('',#490,#111);
#88=LINE('',#492,#112);
#89=LINE('',#505,#113);
#90=LINE('',#507,#114);
#91=LINE('',#509,#115);
#92=LINE('',#522,#116);
#93=LINE('',#524,#117);
#94=LINE('',#526,#118);
#95=LINE('',#528,#119);
#96=LINE('',#529,#120);
#97=VECTOR('',#353,10.);
#98=VECTOR('',#354,10.);
#99=VECTOR('',#355,10.);
#100=VECTOR('',#356,10.);
#101=VECTOR('',#357,10.);
#102=VECTOR('',#358,10.);
#103=VECTOR('',#359,10.);
#104=VECTOR('',#360,10.);
#105=VECTOR('',#361,10.);
#106=VECTOR('',#362,10.);
#107=VECTOR('',#363,10.);
#108=VECTOR('',#364,10.);
#109=VECTOR('',#367,10.);
#110=VECTOR('',#368,10.);
#111=VECTOR('',#369,10.);
#112=VECTOR('',#370,10.);
#113=VECTOR('',#371,10.);
#114=VECTOR('',#372,10.);
#115=VECTOR('',#373,10.);
#116=VECTOR('',#374,10.);
#117=VECTOR('',#375,10.);
#118=VECTOR('',#376,10.);
#119=VECTOR('',#377,10.);
#120=VECTOR('',#378,10.);
#121=VERTEX_POINT('',#437);
#122=VERTEX_POINT('',#438);
#123=VERTEX_POINT('',#440);
#124=VERTEX_POINT('',#442);
#125=VERTEX_POINT('',#444);
#126=VERTEX_POINT('',#446);
#127=VERTEX_POINT('',#448);
#128=VERTEX_POINT('',#450);
#129=VERTEX_POINT('',#461);
#130=VERTEX_POINT('',#463);
#131=VERTEX_POINT('',#465);
#132=VERTEX_POINT('',#467);
#133=VERTEX_POINT('',#478);
#134=VERTEX_POINT('',#480);
#135=VERTEX_POINT('',#484);
#136=VERTEX_POINT('',#485);
#137=VERTEX_POINT('',#487);
#138=VERTEX_POINT('',#489);
#139=VERTEX_POINT('',#491);
#140=VERTEX_POINT('',#493);
#141=VERTEX_POINT('',#504);
#142=VERTEX_POINT('',#506);
#143=VERTEX_POINT('',#508);
#144=VERTEX_POINT('',#510);
#145=VERTEX_POINT('',#521);
#146=VERTEX_POINT('',#523);
#147=VERTEX_POINT('',#525);
#148=VERTEX_POINT('',#527);
#149=EDGE_CURVE('',#121,#122,#73,.T.);
#150=EDGE_CURVE('',#123,#121,#74,.T.);
#151=EDGE_CURVE('',#124,#123,#75,.T.);
#152=EDGE_CURVE('',#125,#124,#76,.T.);
#153=EDGE_CURVE('',#126,#125,#77,.T.);
#154=EDGE_CURVE('',#127,#126,#78,.T.);
#155=EDGE_CURVE('',#128,#127,#69,.T.);
#156=EDGE_CURVE('',#129,#128,#79,.T.);
#157=EDGE_CURVE('',#130,#129,#80,.T.);
#158=EDGE_CURVE('',#131,#130,#81,.T.);
#159=EDGE_CURVE('',#132,#131,#70,.T.);
#160=EDGE_CURVE('',#133,#132,#82,.T.);
#161=EDGE_CURVE('',#134,#133,#83,.T.);
#162=EDGE_CURVE('',#122,#134,#84,.T.);
#163=EDGE_CURVE('',#135,#136,#85,.T.);
#164=EDGE_CURVE('',#137,#135,#86,.T.);
#165=EDGE_CURVE('',#138,#137,#87,.T.);
#166=EDGE_CURVE('',#139,#138,#88,.T.);
#167=EDGE_CURVE('',#140,#139,#71,.T.);
#168=EDGE_CURVE('',#141,#140,#89,.T.);
#169=EDGE_CURVE('',#142,#141,#90,.T.);
#170=EDGE_CURVE('',#143,#142,#91,.T.);
#171=EDGE_CURVE('',#144,#143,#72,.T.);
#172=EDGE_CURVE('',#145,#144,#92,.T.);
#173=EDGE_CURVE('',#146,#145,#93,.T.);
#174=EDGE_CURVE('',#147,#146,#94,.T.);
#175=EDGE_CURVE('',#148,#147,#95,.T.);
#176=EDGE_CURVE('',#136,#148,#96,.T.);
#177=EDGE_CURVE('',#136,#121,#23,.T.);
#178=EDGE_CURVE('',#135,#122,#24,.T.);
#179=EDGE_CURVE('',#148,#123,#25,.T.);
#180=EDGE_CURVE('',#147,#124,#26,.T.);
#181=EDGE_CURVE('',#146,#125,#27,.T.);
#182=EDGE_CURVE('',#145,#126,#28,.T.);
#183=EDGE_CURVE('',#127,#144,#29,.T.);
#184=EDGE_CURVE('',#139,#132,#30,.T.);
#185=EDGE_CURVE('',#131,#140,#31,.T.);
#186=EDGE_CURVE('',#138,#133,#32,.T.);
#187=EDGE_CURVE('',#141,#130,#33,.T.);
#188=EDGE_CURVE('',#143,#128,#34,.T.);
#189=EDGE_CURVE('',#142,#129,#35,.T.);
#190=EDGE_CURVE('',#137,#134,#36,.T.);
#191=ORIENTED_EDGE('',*,*,#149,.F.);
#192=ORIENTED_EDGE('',*,*,#150,.F.);
#193=ORIENTED_EDGE('',*,*,#151,.F.);
#194=ORIENTED_EDGE('',*,*,#152,.F.);
#195=ORIENTED_EDGE('',*,*,#153,.F.);
#196=ORIENTED_EDGE('',*,*,#154,.F.);
#197=ORIENTED_EDGE('',*,*,#155,.F.);
#198=ORIENTED_EDGE('',*,*,#156,.F.);
#199=ORIENTED_EDGE('',*,*,#157,.F.);
#200=ORIENTED_EDGE('',*,*,#158,.F.);
#201=ORIENTED_EDGE('',*,*,#159,.F.);
#202=ORIENTED_EDGE('',*,*,#160,.F.);
#203=ORIENTED_EDGE('',*,*,#161,.F.);
#204=ORIENTED_EDGE('',*,*,#162,.F.);
#205=ORIENTED_EDGE('',*,*,#163,.F.);
#206=ORIENTED_EDGE('',*,*,#164,.F.);
#207=ORIENTED_EDGE('',*,*,#165,.F.);
#208=ORIENTED_EDGE('',*,*,#166,.F.);
#209=ORIENTED_EDGE('',*,*,#167,.F.);
#210=ORIENTED_EDGE('',*,*,#168,.F.);
#211=ORIENTED_EDGE('',*,*,#169,.F.);
#212=ORIENTED_EDGE('',*,*,#170,.F.);
#213=ORIENTED_EDGE('',*,*,#171,.F.);
#214=ORIENTED_EDGE('',*,*,#172,.F.);
#215=ORIENTED_EDGE('',*,*,#173,.F.);
#216=ORIENTED_EDGE('',*,*,#174,.F.);
#217=ORIENTED_EDGE('',*,*,#175,.F.);
#218=ORIENTED_EDGE('',*,*,#176,.F.);
#219=ORIENTED_EDGE('',*,*,#163,.T.);
#220=ORIENTED_EDGE('',*,*,#177,.T.);
#221=ORIENTED_EDGE('',*,*,#149,.T.);
#222=ORIENTED_EDGE('',*,*,#178,.F.);
#223=ORIENTED_EDGE('',*,*,#176,.T.);
#224=ORIENTED_EDGE('',*,*,#179,.T.);
#225=ORIENTED_EDGE('',*,*,#150,.T.);
#226=ORIENTED_EDGE('',*,*,#177,.F.);
#227=ORIENTED_EDGE('',*,*,#175,.T.);
#228=ORIENTED_EDGE('',*,*,#180,.T.);
#229=ORIENTED_EDGE('',*,*,#151,.T.);
#230=ORIENTED_EDGE('',*,*,#179,.F.);
#231=ORIENTED_EDGE('',*,*,#174,.T.);
#232=ORIENTED_EDGE('',*,*,#181,.T.);
#233=ORIENTED_EDGE('',*,*,#152,.T.);
#234=ORIENTED_EDGE('',*,*,#180,.F.);
#235=ORIENTED_EDGE('',*,*,#173,.T.);
#236=ORIENTED_EDGE('',*,*,#182,.T.);
#237=ORIENTED_EDGE('',*,*,#153,.T.);
#238=ORIENTED_EDGE('',*,*,#181,.F.);
#239=ORIENTED_EDGE('',*,*,#172,.T.);
#240=ORIENTED_EDGE('',*,*,#183,.F.);
#241=ORIENTED_EDGE('',*,*,#154,.T.);
#242=ORIENTED_EDGE('',*,*,#182,.F.);
#243=ORIENTED_EDGE('',*,*,#167,.T.);
#244=ORIENTED_EDGE('',*,*,#184,.T.);
#245=ORIENTED_EDGE('',*,*,#159,.T.);
#246=ORIENTED_EDGE('',*,*,#185,.T.);
#247=ORIENTED_EDGE('',*,*,#166,.T.);
#248=ORIENTED_EDGE('',*,*,#186,.T.);
#249=ORIENTED_EDGE('',*,*,#160,.T.);
#250=ORIENTED_EDGE('',*,*,#184,.F.);
#251=ORIENTED_EDGE('',*,*,#168,.T.);
#252=ORIENTED_EDGE('',*,*,#185,.F.);
#253=ORIENTED_EDGE('',*,*,#158,.T.);
#254=ORIENTED_EDGE('',*,*,#187,.F.);
#255=ORIENTED_EDGE('',*,*,#171,.T.);
#256=ORIENTED_EDGE('',*,*,#188,.T.);
#257=ORIENTED_EDGE('',*,*,#155,.T.);
#258=ORIENTED_EDGE('',*,*,#183,.T.);
#259=ORIENTED_EDGE('',*,*,#170,.T.);
#260=ORIENTED_EDGE('',*,*,#189,.T.);
#261=ORIENTED_EDGE('',*,*,#156,.T.);
#262=ORIENTED_EDGE('',*,*,#188,.F.);
#263=ORIENTED_EDGE('',*,*,#164,.T.);
#264=ORIENTED_EDGE('',*,*,#178,.T.);
#265=ORIENTED_EDGE('',*,*,#162,.T.);
#266=ORIENTED_EDGE('',*,*,#190,.F.);
#267=ORIENTED_EDGE('',*,*,#165,.T.);
#268=ORIENTED_EDGE('',*,*,#190,.T.);
#269=ORIENTED_EDGE('',*,*,#161,.T.);
#270=ORIENTED_EDGE('',*,*,#186,.F.);
#271=ORIENTED_EDGE('',*,*,#169,.T.);
#272=ORIENTED_EDGE('',*,*,#187,.T.);
#273=ORIENTED_EDGE('',*,*,#157,.T.);
#274=ORIENTED_EDGE('',*,*,#189,.F.);
#275=PLANE('',#319);
#276=PLANE('',#320);
#277=PLANE('',#321);
#278=PLANE('',#326);
#279=PLANE('',#330);
#280=PLANE('',#339);
#281=PLANE('',#343);
#282=PLANE('',#347);
#283=ADVANCED_FACE('',(#37),#275,.F.);
#284=ADVANCED_FACE('',(#38),#276,.F.);
#285=ADVANCED_FACE('',(#39),#277,.T.);
#286=ADVANCED_FACE('',(#40),#17,.T.);
#287=ADVANCED_FACE('',(#41),#278,.T.);
#288=ADVANCED_FACE('',(#42),#18,.T.);
#289=ADVANCED_FACE('',(#43),#279,.T.);
#290=ADVANCED_FACE('',(#44),#19,.T.);
#291=ADVANCED_FACE('',(#45),#15,.T.);
#292=ADVANCED_FACE('',(#46),#20,.T.);
#293=ADVANCED_FACE('',(#47),#280,.T.);
#294=ADVANCED_FACE('',(#48),#16,.T.);
#295=ADVANCED_FACE('',(#49),#281,.T.);
#296=ADVANCED_FACE('',(#50),#21,.T.);
#297=ADVANCED_FACE('',(#51),#282,.T.);
#298=ADVANCED_FACE('',(#52),#22,.F.);
#299=CLOSED_SHELL('',(#283,#284,#285,#286,#287,#288,#289,#290,#291,#292,
#293,#294,#295,#296,#297,#298));
#300=DERIVED_UNIT_ELEMENT(#302,1.);
#301=DERIVED_UNIT_ELEMENT(#563,-3.);
#302=(
MASS_UNIT()
NAMED_UNIT(*)
SI_UNIT($,.GRAM.)
);
#303=DERIVED_UNIT((#300,#301));
#304=MEASURE_REPRESENTATION_ITEM('density measure',
POSITIVE_RATIO_MEASURE(7.85),#303);
#305=PROPERTY_DEFINITION_REPRESENTATION(#310,#307);
#306=PROPERTY_DEFINITION_REPRESENTATION(#311,#308);
#307=REPRESENTATION('material name',(#309),#560);
#308=REPRESENTATION('density',(#304),#560);
#309=DESCRIPTIVE_REPRESENTATION_ITEM('Stahl','Stahl');
#310=PROPERTY_DEFINITION('material property','material name',#570);
#311=PROPERTY_DEFINITION('material property','density of part',#570);
#312=DATE_TIME_ROLE('creation_date');
#313=APPLIED_DATE_AND_TIME_ASSIGNMENT(#314,#312,(#570));
#314=DATE_AND_TIME(#315,#316);
#315=CALENDAR_DATE(2009,6,5);
#316=LOCAL_TIME(0,0,0.,#317);
#317=COORDINATED_UNIVERSAL_TIME_OFFSET(0,0,.BEHIND.);
#318=AXIS2_PLACEMENT_3D('placement',#435,#349,#350);
#319=AXIS2_PLACEMENT_3D('',#436,#351,#352);
#320=AXIS2_PLACEMENT_3D('',#483,#365,#366);
#321=AXIS2_PLACEMENT_3D('',#530,#379,#380);
#322=AXIS2_PLACEMENT_3D('',#531,#381,#382);
#323=AXIS2_PLACEMENT_3D('',#532,#383,#384);
#324=AXIS2_PLACEMENT_3D('',#533,#385,#386);
#325=AXIS2_PLACEMENT_3D('',#534,#387,#388);
#326=AXIS2_PLACEMENT_3D('',#535,#389,#390);
#327=AXIS2_PLACEMENT_3D('',#536,#391,#392);
#328=AXIS2_PLACEMENT_3D('',#537,#393,#394);
#329=AXIS2_PLACEMENT_3D('',#538,#395,#396);
#330=AXIS2_PLACEMENT_3D('',#539,#397,#398);
#331=AXIS2_PLACEMENT_3D('',#540,#399,#400);
#332=AXIS2_PLACEMENT_3D('',#541,#401,#402);
#333=AXIS2_PLACEMENT_3D('',#542,#403,#404);
#334=AXIS2_PLACEMENT_3D('',#543,#405,#406);
#335=AXIS2_PLACEMENT_3D('',#544,#407,#408);
#336=AXIS2_PLACEMENT_3D('',#545,#409,#410);
#337=AXIS2_PLACEMENT_3D('',#546,#411,#412);
#338=AXIS2_PLACEMENT_3D('',#547,#413,#414);
#339=AXIS2_PLACEMENT_3D('',#548,#415,#416);
#340=AXIS2_PLACEMENT_3D('',#549,#417,#418);
#341=AXIS2_PLACEMENT_3D('',#550,#419,#420);
#342=AXIS2_PLACEMENT_3D('',#551,#421,#422);
#343=AXIS2_PLACEMENT_3D('',#552,#423,#424);
#344=AXIS2_PLACEMENT_3D('',#553,#425,#426);
#345=AXIS2_PLACEMENT_3D('',#554,#427,#428);
#346=AXIS2_PLACEMENT_3D('',#555,#429,#430);
#347=AXIS2_PLACEMENT_3D('',#556,#431,#432);
#348=AXIS2_PLACEMENT_3D('',#557,#433,#434);
#349=DIRECTION('axis',(0.,0.,1.));
#350=DIRECTION('refdir',(1.,0.,0.));
#351=DIRECTION('center_axis',(0.,-0.342020143325668,-0.939692620785909));
#352=DIRECTION('ref_axis',(-1.,0.,0.));
#353=DIRECTION('',(0.,-0.939692620785909,0.342020143325668));
#354=DIRECTION('',(1.,0.,0.));
#355=DIRECTION('',(0.,0.939692620785909,-0.342020143325668));
#356=DIRECTION('',(1.,0.,0.));
#357=DIRECTION('',(0.,-0.939692620785909,0.342020143325668));
#358=DIRECTION('',(1.,0.,0.));
#359=DIRECTION('',(0.,0.939692620785909,-0.342020143325668));
#360=DIRECTION('',(-1.,0.,0.));
#361=DIRECTION('',(0.,-0.939692620785909,0.342020143325668));
#362=DIRECTION('',(1.,0.,0.));
#363=DIRECTION('',(0.,0.939692620785909,-0.342020143325668));
#364=DIRECTION('',(1.,0.,0.));
#365=DIRECTION('center_axis',(0.,0.342020143325668,0.939692620785909));
#366=DIRECTION('ref_axis',(1.,0.,0.));
#367=DIRECTION('',(0.,0.939692620785909,-0.342020143325668));
#368=DIRECTION('',(-1.,0.,0.));
#369=DIRECTION('',(0.,-0.939692620785909,0.342020143325668));
#370=DIRECTION('',(-1.,0.,0.));
#371=DIRECTION('',(0.,0.939692620785909,-0.342020143325668));
#372=DIRECTION('',(1.,0.,0.));
#373=DIRECTION('',(0.,-0.939692620785909,0.342020143325668));
#374=DIRECTION('',(-1.,0.,0.));
#375=DIRECTION('',(0.,0.939692620785909,-0.342020143325668));
#376=DIRECTION('',(-1.,0.,0.));
#377=DIRECTION('',(0.,-0.939692620785909,0.342020143325668));
#378=DIRECTION('',(-1.,0.,0.));
#379=DIRECTION('center_axis',(1.,0.,0.));
#380=DIRECTION('ref_axis',(0.,0.,-1.));
#381=DIRECTION('center_axis',(1.,0.,0.));
#382=DIRECTION('ref_axis',(1.48090453702706E-16,1.,0.));
#383=DIRECTION('center_axis',(1.,0.,0.));
#384=DIRECTION('ref_axis',(1.48090453702706E-16,1.,0.));
#385=DIRECTION('center_axis',(1.,0.,0.));
#386=DIRECTION('ref_axis',(1.48090453702706E-16,-0.939692620785909,0.342020143325668));
#387=DIRECTION('center_axis',(1.,0.,0.));
#388=DIRECTION('ref_axis',(1.48090453702706E-16,1.,0.));
#389=DIRECTION('center_axis',(-1.,0.,0.));
#390=DIRECTION('ref_axis',(0.,0.,1.));
#391=DIRECTION('center_axis',(1.,0.,0.));
#392=DIRECTION('ref_axis',(1.48090453702706E-16,1.,0.));
#393=DIRECTION('center_axis',(1.,0.,0.));
#394=DIRECTION('ref_axis',(1.48090453702706E-16,-0.939692620785909,0.342020143325668));
#395=DIRECTION('center_axis',(1.,0.,0.));
#396=DIRECTION('ref_axis',(1.48090453702706E-16,1.,0.));
#397=DIRECTION('center_axis',(1.,0.,0.));
#398=DIRECTION('ref_axis',(0.,0.,-1.));
#399=DIRECTION('center_axis',(1.,0.,0.));
#400=DIRECTION('ref_axis',(1.48090453702706E-16,1.,0.));
#401=DIRECTION('center_axis',(1.,0.,0.));
#402=DIRECTION('ref_axis',(1.48090453702706E-16,-0.939692620785909,0.342020143325668));
#403=DIRECTION('center_axis',(-1.,0.,0.));
#404=DIRECTION('ref_axis',(0.,-1.,1.22460635382238E-16));
#405=DIRECTION('center_axis',(1.,0.,0.));
#406=DIRECTION('ref_axis',(0.,-0.939692620785909,0.342020143325668));
#407=DIRECTION('center_axis',(1.,0.,0.));
#408=DIRECTION('ref_axis',(0.,-1.,1.22460635382238E-16));
#409=DIRECTION('center_axis',(-1.,0.,0.));
#410=DIRECTION('ref_axis',(0.,-1.,1.22460635382238E-16));
#411=DIRECTION('center_axis',(1.,0.,0.));
#412=DIRECTION('ref_axis',(1.48090453702706E-16,-0.939692620785909,0.342020143325668));
#413=DIRECTION('center_axis',(1.,0.,0.));
#414=DIRECTION('ref_axis',(1.48090453702706E-16,1.,0.));
#415=DIRECTION('center_axis',(1.,0.,0.));
#416=DIRECTION('ref_axis',(0.,0.,-1.));
#417=DIRECTION('center_axis',(1.,0.,0.));
#418=DIRECTION('ref_axis',(1.48090453702706E-16,1.,0.));
#419=DIRECTION('center_axis',(1.,0.,0.));
#420=DIRECTION('ref_axis',(0.,-0.939692620785909,0.342020143325669));
#421=DIRECTION('center_axis',(1.,0.,0.));
#422=DIRECTION('ref_axis',(0.,-1.,1.22460635382238E-16));
#423=DIRECTION('center_axis',(-1.,0.,0.));
#424=DIRECTION('ref_axis',(0.,0.,1.));
#425=DIRECTION('center_axis',(1.,0.,0.));
#426=DIRECTION('ref_axis',(1.48090453702706E-16,1.,0.));
#427=DIRECTION('center_axis',(1.,0.,0.));
#428=DIRECTION('ref_axis',(1.48090453702706E-16,-0.939692620785909,0.342020143325668));
#429=DIRECTION('center_axis',(1.,0.,0.));
#430=DIRECTION('ref_axis',(1.48090453702706E-16,1.,0.));
#431=DIRECTION('center_axis',(-1.,0.,0.));
#432=DIRECTION('ref_axis',(0.,0.,1.));
#433=DIRECTION('center_axis',(1.,0.,0.));
#434=DIRECTION('ref_axis',(1.48090453702706E-16,-0.939692620785909,0.342020143325669));
#435=CARTESIAN_POINT('',(0.,0.,0.));
#436=CARTESIAN_POINT('Origin',(70.,37.0482364635551,-15.0807219635037));
#437=CARTESIAN_POINT('',(48.6,55.8509050416599,-21.9243336507062));
#438=CARTESIAN_POINT('',(48.6,53.9709119453179,-21.2400721230118));
#439=CARTESIAN_POINT('',(48.6,44.3167586602883,-17.7262476902177));
#440=CARTESIAN_POINT('',(-48.6,55.8509050416599,-21.9243336507062));
#441=CARTESIAN_POINT('',(0.,55.8509050416599,-21.9243336507062));
#442=CARTESIAN_POINT('',(-48.6,53.9709119453179,-21.2400721230118));
#443=CARTESIAN_POINT('',(-48.6,44.3167586602883,-17.7262476902177));
#444=CARTESIAN_POINT('',(-52.75,53.9709119453179,-21.2400721230118));
#445=CARTESIAN_POINT('',(-50.675,53.9709119453179,-21.2400721230118));
#446=CARTESIAN_POINT('',(-52.75,55.8509050416599,-21.9243336507062));
#447=CARTESIAN_POINT('',(-52.75,44.3167586602883,-17.7262476902177));
#448=CARTESIAN_POINT('',(-69.,55.8509050416599,-21.9243336507062));
#449=CARTESIAN_POINT('',(-61.375,55.8509050416599,-21.9243336507062));
#450=CARTESIAN_POINT('',(-70.,54.9109136472997,-21.5822047626927));
#451=CARTESIAN_POINT('Ctrl Pts',(-70.,54.9109136472997,-21.5822047626927));
#452=CARTESIAN_POINT('Ctrl Pts',(-70.,55.0269336225485,-21.6244325802636));
#453=CARTESIAN_POINT('Ctrl Pts',(-69.9711022913036,55.1634836934255,-21.6741327415497));
#454=CARTESIAN_POINT('Ctrl Pts',(-69.8766284955049,55.3778484157273,-21.7521551197444));
#455=CARTESIAN_POINT('Ctrl Pts',(-69.7943431698918,55.4935979399941,-21.7942845012079));
#456=CARTESIAN_POINT('Ctrl Pts',(-69.619799276906,55.6576468514412,-21.8539934219384));
#457=CARTESIAN_POINT('Ctrl Pts',(-69.4966634442208,55.7349799025603,-21.8821403506708));
#458=CARTESIAN_POINT('Ctrl Pts',(-69.2686358093973,55.823752037109,-21.9144507652788));
#459=CARTESIAN_POINT('Ctrl Pts',(-69.123401100869,55.8509050416599,-21.9243336507062));
#460=CARTESIAN_POINT('Ctrl Pts',(-69.,55.8509050416599,-21.9243336507062));
#461=CARTESIAN_POINT('',(-70.,37.0482364635551,-15.0807219635037));
#462=CARTESIAN_POINT('',(-70.,40.3431586632706,-16.279975568423));
#463=CARTESIAN_POINT('',(70.,37.0482364635551,-15.0807219635037));
#464=CARTESIAN_POINT('',(0.,37.0482364635551,-15.0807219635037));
#465=CARTESIAN_POINT('',(70.,54.9109136472997,-21.5822047626927));
#466=CARTESIAN_POINT('',(70.,40.3431586632706,-16.279975568423));
#467=CARTESIAN_POINT('',(69.,55.8509050416599,-21.9243336507062));
#468=CARTESIAN_POINT('Ctrl Pts',(69.,55.8509050416599,-21.9243336507062));
#469=CARTESIAN_POINT('Ctrl Pts',(69.123401100869,55.8509050416599,-21.9243336507062));
#470=CARTESIAN_POINT('Ctrl Pts',(69.2686358093973,55.823752037109,-21.9144507652788));
#471=CARTESIAN_POINT('Ctrl Pts',(69.4966634442208,55.7349799025603,-21.8821403506708));
#472=CARTESIAN_POINT('Ctrl Pts',(69.6197992769059,55.6576468514412,-21.8539934219384));
#473=CARTESIAN_POINT('Ctrl Pts',(69.7943431698918,55.4935979399941,-21.7942845012079));
#474=CARTESIAN_POINT('Ctrl Pts',(69.8766284955049,55.3778484157273,-21.7521551197444));
#475=CARTESIAN_POINT('Ctrl Pts',(69.9711022913036,55.1634836934255,-21.6741327415497));
#476=CARTESIAN_POINT('Ctrl Pts',(70.,55.0269336225485,-21.6244325802636));
#477=CARTESIAN_POINT('Ctrl Pts',(70.,54.9109136472997,-21.5822047626927));
#478=CARTESIAN_POINT('',(52.75,55.8509050416599,-21.9243336507062));
#479=CARTESIAN_POINT('',(61.375,55.8509050416599,-21.9243336507062));
#480=CARTESIAN_POINT('',(52.75,53.9709119453179,-21.2400721230118));
#481=CARTESIAN_POINT('',(52.75,44.3167586602883,-17.7262476902177));
#482=CARTESIAN_POINT('',(50.675,53.9709119453179,-21.2400721230118));
#483=CARTESIAN_POINT('Origin',(70.,56.8769654716369,-19.1052557883485));
#484=CARTESIAN_POINT('',(48.6,54.9969723752949,-18.4209942606541));
#485=CARTESIAN_POINT('',(48.6,56.8769654716369,-19.1052557883485));
#486=CARTESIAN_POINT('',(48.6,54.7441533793176,-18.3289756714613));
#487=CARTESIAN_POINT('',(52.75,54.9969723752949,-18.4209942606541));
#488=CARTESIAN_POINT('',(50.675,54.9969723752949,-18.4209942606541));
#489=CARTESIAN_POINT('',(52.75,56.8769654716369,-19.1052557883485));
#490=CARTESIAN_POINT('',(52.75,54.7441533793176,-18.3289756714613));
#491=CARTESIAN_POINT('',(69.,56.8769654716369,-19.1052557883485));
#492=CARTESIAN_POINT('',(61.375,56.8769654716369,-19.1052557883485));
#493=CARTESIAN_POINT('',(70.,55.9369740772767,-18.763126900335));
#494=CARTESIAN_POINT('Ctrl Pts',(70.,55.9369740772767,-18.763126900335));
#495=CARTESIAN_POINT('Ctrl Pts',(70.,56.0529940525255,-18.8053547179059));
#496=CARTESIAN_POINT('Ctrl Pts',(69.9711022913036,56.1895441234025,-18.855054879192));
#497=CARTESIAN_POINT('Ctrl Pts',(69.8766284955049,56.4039088457043,-18.9330772573866));
#498=CARTESIAN_POINT('Ctrl Pts',(69.7943431698918,56.5196583699711,-18.9752066388502));
#499=CARTESIAN_POINT('Ctrl Pts',(69.6197992769059,56.6837072814182,-19.0349155595807));
#500=CARTESIAN_POINT('Ctrl Pts',(69.4966634442208,56.7610403325373,-19.0630624883131));
#501=CARTESIAN_POINT('Ctrl Pts',(69.2686358093973,56.8498124670861,-19.0953729029211));
#502=CARTESIAN_POINT('Ctrl Pts',(69.123401100869,56.8769654716369,-19.1052557883485));
#503=CARTESIAN_POINT('Ctrl Pts',(69.,56.8769654716369,-19.1052557883485));
#504=CARTESIAN_POINT('',(70.,38.0742968935321,-12.2616441011459));
#505=CARTESIAN_POINT('',(70.,50.7705533822999,-16.8827035496665));
#506=CARTESIAN_POINT('',(-70.,38.0742968935321,-12.2616441011459));
#507=CARTESIAN_POINT('',(0.,38.0742968935321,-12.2616441011459));
#508=CARTESIAN_POINT('',(-70.,55.9369740772767,-18.763126900335));
#509=CARTESIAN_POINT('',(-70.,50.7705533822999,-16.8827035496665));
#510=CARTESIAN_POINT('',(-69.,56.8769654716369,-19.1052557883485));
#511=CARTESIAN_POINT('Ctrl Pts',(-69.,56.8769654716369,-19.1052557883485));
#512=CARTESIAN_POINT('Ctrl Pts',(-69.123401100869,56.8769654716369,-19.1052557883485));
#513=CARTESIAN_POINT('Ctrl Pts',(-69.2686358093973,56.849812467086,-19.0953729029211));
#514=CARTESIAN_POINT('Ctrl Pts',(-69.4966634442208,56.7610403325373,-19.0630624883131));
#515=CARTESIAN_POINT('Ctrl Pts',(-69.619799276906,56.6837072814182,-19.0349155595807));
#516=CARTESIAN_POINT('Ctrl Pts',(-69.7943431698918,56.5196583699711,-18.9752066388502));
#517=CARTESIAN_POINT('Ctrl Pts',(-69.8766284955049,56.4039088457044,-18.9330772573866));
#518=CARTESIAN_POINT('Ctrl Pts',(-69.9711022913036,56.1895441234025,-18.855054879192));
#519=CARTESIAN_POINT('Ctrl Pts',(-70.,56.0529940525255,-18.8053547179059));
#520=CARTESIAN_POINT('Ctrl Pts',(-70.,55.9369740772767,-18.763126900335));
#521=CARTESIAN_POINT('',(-52.75,56.8769654716369,-19.1052557883485));
#522=CARTESIAN_POINT('',(-61.375,56.8769654716369,-19.1052557883485));
#523=CARTESIAN_POINT('',(-52.75,54.9969723752949,-18.4209942606541));
#524=CARTESIAN_POINT('',(-52.75,54.7441533793176,-18.3289756714613));
#525=CARTESIAN_POINT('',(-48.6,54.9969723752949,-18.4209942606541));
#526=CARTESIAN_POINT('',(-50.675,54.9969723752949,-18.4209942606541));
#527=CARTESIAN_POINT('',(-48.6,56.8769654716369,-19.1052557883485));
#528=CARTESIAN_POINT('',(-48.6,54.7441533793176,-18.3289756714613));
#529=CARTESIAN_POINT('',(0.,56.8769654716369,-19.1052557883485));
#530=CARTESIAN_POINT('Origin',(48.6,59.,0.));
#531=CARTESIAN_POINT('Origin',(48.6,0.,0.));
#532=CARTESIAN_POINT('Origin',(48.6,0.,0.));
#533=CARTESIAN_POINT('Origin',(0.,0.,0.));
#534=CARTESIAN_POINT('Origin',(-48.6,0.,0.));
#535=CARTESIAN_POINT('Origin',(-48.6,59.,0.));
#536=CARTESIAN_POINT('Origin',(-48.6,0.,0.));
#537=CARTESIAN_POINT('Origin',(-50.675,0.,0.));
#538=CARTESIAN_POINT('Origin',(-52.75,0.,0.));
#539=CARTESIAN_POINT('Origin',(-52.75,59.,0.));
#540=CARTESIAN_POINT('Origin',(-52.75,0.,0.));
#541=CARTESIAN_POINT('Origin',(-61.375,0.,0.));
#542=CARTESIAN_POINT('Origin',(-69.,0.,0.));
#543=CARTESIAN_POINT('Origin',(69.,0.,0.));
#544=CARTESIAN_POINT('Origin',(69.,0.,0.));
#545=CARTESIAN_POINT('Origin',(70.,0.,0.));
#546=CARTESIAN_POINT('Origin',(61.375,0.,0.));
#547=CARTESIAN_POINT('Origin',(52.75,0.,0.));
#548=CARTESIAN_POINT('Origin',(70.,50.,0.));
#549=CARTESIAN_POINT('Origin',(70.,0.,0.));
#550=CARTESIAN_POINT('Origin',(-69.,0.,0.));
#551=CARTESIAN_POINT('Origin',(-70.,0.,0.));
#552=CARTESIAN_POINT('Origin',(-70.,50.,0.));
#553=CARTESIAN_POINT('Origin',(-70.,0.,0.));
#554=CARTESIAN_POINT('Origin',(50.675,0.,0.));
#555=CARTESIAN_POINT('Origin',(52.75,0.,0.));
#556=CARTESIAN_POINT('Origin',(52.75,59.,0.));
#557=CARTESIAN_POINT('Origin',(0.,0.,0.));
#558=UNCERTAINTY_MEASURE_WITH_UNIT(LENGTH_MEASURE(0.01),#562,
'DISTANCE_ACCURACY_VALUE',
'Maximum model space distance between geometric entities at asserted c
onnectivities');
#559=UNCERTAINTY_MEASURE_WITH_UNIT(LENGTH_MEASURE(0.01),#562,
'DISTANCE_ACCURACY_VALUE',
'Maximum model space distance between geometric entities at asserted c
onnectivities');
#560=(
GEOMETRIC_REPRESENTATION_CONTEXT(3)
GLOBAL_UNCERTAINTY_ASSIGNED_CONTEXT((#558))
GLOBAL_UNIT_ASSIGNED_CONTEXT((#562,#564,#565))
REPRESENTATION_CONTEXT('','3D')
);
#561=(
GEOMETRIC_REPRESENTATION_CONTEXT(3)
GLOBAL_UNCERTAINTY_ASSIGNED_CONTEXT((#559))
GLOBAL_UNIT_ASSIGNED_CONTEXT((#562,#564,#565))
REPRESENTATION_CONTEXT('','3D')
);
#562=(
LENGTH_UNIT()
NAMED_UNIT(*)
SI_UNIT(.MILLI.,.METRE.)
);
#563=(
LENGTH_UNIT()
NAMED_UNIT(*)
SI_UNIT(.CENTI.,.METRE.)
);
#564=(
NAMED_UNIT(*)
PLANE_ANGLE_UNIT()
SI_UNIT($,.RADIAN.)
);
#565=(
NAMED_UNIT(*)
SI_UNIT($,.STERADIAN.)
SOLID_ANGLE_UNIT()
);
#566=SHAPE_DEFINITION_REPRESENTATION(#567,#568);
#567=PRODUCT_DEFINITION_SHAPE('',$,#570);
#568=SHAPE_REPRESENTATION('',(#318),#560);
#569=PRODUCT_DEFINITION_CONTEXT('part definition',#574,'design');
#570=PRODUCT_DEFINITION('leer','00011994',#571,#569);
#571=PRODUCT_DEFINITION_FORMATION('',$,#576);
#572=PRODUCT_RELATED_PRODUCT_CATEGORY('00011994','00011994',(#576));
#573=APPLICATION_PROTOCOL_DEFINITION('international standard',
'automotive_design',2009,#574);
#574=APPLICATION_CONTEXT(
'Core Data for Automotive Mechanical Design Process');
#575=PRODUCT_CONTEXT('part definition',#574,'mechanical');
#576=PRODUCT('leer','00011994',
'Gross Linearlager mit Stahlk\X\E4fig geschlitzt beidseitig abgedichte
t',(#575));
#577=PRESENTATION_STYLE_ASSIGNMENT((#578));
#578=SURFACE_STYLE_USAGE(.BOTH.,#581);
#579=SURFACE_STYLE_RENDERING_WITH_PROPERTIES($,#585,(#580));
#580=SURFACE_STYLE_TRANSPARENT(0.);
#581=SURFACE_SIDE_STYLE('',(#582,#579));
#582=SURFACE_STYLE_FILL_AREA(#583);
#583=FILL_AREA_STYLE('',(#584));
#584=FILL_AREA_STYLE_COLOUR('',#585);
#585=COLOUR_RGB('',0.87843137254902,0.874509803921569,0.858823529411765);
ENDSEC;
END-ISO-10303-21;
