ISO-10303-21;
HEADER;
/* Generated by software containing ST-Developer
 * from STEP Tools, Inc. (www.steptools.com) 
 */

FILE_DESCRIPTION(
/* description */ ('Linearlager mit Stahlk\X\E4fig mit Ausschnitt'),
/* implementation_level */ '2;1');

FILE_NAME(
/* name */ '\\\\fileserver\\Daten2\\STEP Daten fuer PIM\\101330-0.step',

/* time_stamp */ '2021-09-02T14:34:17+02:00',
/* author */ ('Praktikum'),
/* organization */ (''),
/* preprocessor_version */ 'ST-DEVELOPER v18.1',
/* originating_system */ 'Autodesk Inventor 2021',
/* authorisation */ '');

FILE_SCHEMA (('AUTOMOTIVE_DESIGN { 1 0 10303 214 3 1 1 }'));
ENDSEC;

DATA;
#10=MECHANICAL_DESIGN_GEOMETRIC_PRESENTATION_REPRESENTATION('',(#13),#537);
#11=SHAPE_REPRESENTATION_RELATIONSHIP('SRR','None',#544,#12);
#12=ADVANCED_BREP_SHAPE_REPRESENTATION('',(#14),#536);
#13=STYLED_ITEM('',(#553),#14);
#14=MANIFOLD_SOLID_BREP('Volumenk\X\F6rper1',#299);
#15=CYLINDRICAL_SURFACE('',#330,16.);
#16=CYLINDRICAL_SURFACE('',#334,15.15);
#17=CYLINDRICAL_SURFACE('',#338,16.);
#18=CYLINDRICAL_SURFACE('',#343,16.);
#19=CYLINDRICAL_SURFACE('',#349,15.15);
#20=CYLINDRICAL_SURFACE('',#352,9.99999999999999);
#21=TOROIDAL_SURFACE('',#328,15.75,0.25);
#22=TOROIDAL_SURFACE('',#340,15.75,0.25);
#23=FACE_OUTER_BOUND('',#39,.T.);
#24=FACE_OUTER_BOUND('',#40,.T.);
#25=FACE_OUTER_BOUND('',#41,.T.);
#26=FACE_OUTER_BOUND('',#42,.T.);
#27=FACE_OUTER_BOUND('',#43,.T.);
#28=FACE_OUTER_BOUND('',#44,.T.);
#29=FACE_OUTER_BOUND('',#45,.T.);
#30=FACE_OUTER_BOUND('',#46,.T.);
#31=FACE_OUTER_BOUND('',#47,.T.);
#32=FACE_OUTER_BOUND('',#48,.T.);
#33=FACE_OUTER_BOUND('',#49,.T.);
#34=FACE_OUTER_BOUND('',#50,.T.);
#35=FACE_OUTER_BOUND('',#51,.T.);
#36=FACE_OUTER_BOUND('',#52,.T.);
#37=FACE_OUTER_BOUND('',#53,.T.);
#38=FACE_OUTER_BOUND('',#54,.T.);
#39=EDGE_LOOP('',(#191,#192,#193,#194,#195,#196,#197,#198,#199,#200,#201,
#202,#203,#204));
#40=EDGE_LOOP('',(#205,#206,#207,#208,#209,#210,#211,#212,#213,#214,#215,
#216,#217,#218));
#41=EDGE_LOOP('',(#219,#220,#221,#222));
#42=EDGE_LOOP('',(#223,#224,#225,#226));
#43=EDGE_LOOP('',(#227,#228,#229,#230));
#44=EDGE_LOOP('',(#231,#232,#233,#234));
#45=EDGE_LOOP('',(#235,#236,#237,#238));
#46=EDGE_LOOP('',(#239,#240,#241,#242));
#47=EDGE_LOOP('',(#243,#244,#245,#246));
#48=EDGE_LOOP('',(#247,#248,#249,#250));
#49=EDGE_LOOP('',(#251,#252,#253,#254));
#50=EDGE_LOOP('',(#255,#256,#257,#258));
#51=EDGE_LOOP('',(#259,#260,#261,#262));
#52=EDGE_LOOP('',(#263,#264,#265,#266));
#53=EDGE_LOOP('',(#267,#268,#269,#270));
#54=EDGE_LOOP('',(#271,#272,#273,#274));
#55=LINE('',#453,#79);
#56=LINE('',#455,#80);
#57=LINE('',#457,#81);
#58=LINE('',#461,#82);
#59=LINE('',#463,#83);
#60=LINE('',#465,#84);
#61=LINE('',#467,#85);
#62=LINE('',#469,#86);
#63=LINE('',#471,#87);
#64=LINE('',#473,#88);
#65=LINE('',#475,#89);
#66=LINE('',#476,#90);
#67=LINE('',#482,#91);
#68=LINE('',#484,#92);
#69=LINE('',#486,#93);
#70=LINE('',#488,#94);
#71=LINE('',#490,#95);
#72=LINE('',#492,#96);
#73=LINE('',#494,#97);
#74=LINE('',#496,#98);
#75=LINE('',#498,#99);
#76=LINE('',#502,#100);
#77=LINE('',#504,#101);
#78=LINE('',#505,#102);
#79=VECTOR('',#359,10.);
#80=VECTOR('',#360,10.);
#81=VECTOR('',#361,10.);
#82=VECTOR('',#364,10.);
#83=VECTOR('',#365,10.);
#84=VECTOR('',#366,10.);
#85=VECTOR('',#367,10.);
#86=VECTOR('',#368,10.);
#87=VECTOR('',#369,10.);
#88=VECTOR('',#370,10.);
#89=VECTOR('',#371,10.);
#90=VECTOR('',#372,10.);
#91=VECTOR('',#377,10.);
#92=VECTOR('',#378,10.);
#93=VECTOR('',#379,10.);
#94=VECTOR('',#380,10.);
#95=VECTOR('',#381,10.);
#96=VECTOR('',#382,10.);
#97=VECTOR('',#383,10.);
#98=VECTOR('',#384,10.);
#99=VECTOR('',#385,10.);
#100=VECTOR('',#388,10.);
#101=VECTOR('',#389,10.);
#102=VECTOR('',#390,10.);
#103=CIRCLE('',#320,0.25);
#104=CIRCLE('',#321,0.25);
#105=CIRCLE('',#323,0.25);
#106=CIRCLE('',#324,0.25);
#107=CIRCLE('',#326,15.75);
#108=CIRCLE('',#327,9.99999999999999);
#109=CIRCLE('',#329,16.);
#110=CIRCLE('',#331,16.);
#111=CIRCLE('',#333,15.15);
#112=CIRCLE('',#335,15.15);
#113=CIRCLE('',#337,16.);
#114=CIRCLE('',#339,16.);
#115=CIRCLE('',#341,15.75);
#116=CIRCLE('',#342,16.);
#117=CIRCLE('',#344,16.);
#118=CIRCLE('',#346,9.99999999999999);
#119=CIRCLE('',#348,15.15);
#120=CIRCLE('',#350,15.15);
#121=VERTEX_POINT('',#449);
#122=VERTEX_POINT('',#450);
#123=VERTEX_POINT('',#452);
#124=VERTEX_POINT('',#454);
#125=VERTEX_POINT('',#456);
#126=VERTEX_POINT('',#458);
#127=VERTEX_POINT('',#460);
#128=VERTEX_POINT('',#462);
#129=VERTEX_POINT('',#464);
#130=VERTEX_POINT('',#466);
#131=VERTEX_POINT('',#468);
#132=VERTEX_POINT('',#470);
#133=VERTEX_POINT('',#472);
#134=VERTEX_POINT('',#474);
#135=VERTEX_POINT('',#478);
#136=VERTEX_POINT('',#479);
#137=VERTEX_POINT('',#481);
#138=VERTEX_POINT('',#483);
#139=VERTEX_POINT('',#485);
#140=VERTEX_POINT('',#487);
#141=VERTEX_POINT('',#489);
#142=VERTEX_POINT('',#491);
#143=VERTEX_POINT('',#493);
#144=VERTEX_POINT('',#495);
#145=VERTEX_POINT('',#497);
#146=VERTEX_POINT('',#499);
#147=VERTEX_POINT('',#501);
#148=VERTEX_POINT('',#503);
#149=EDGE_CURVE('',#121,#122,#103,.T.);
#150=EDGE_CURVE('',#123,#121,#55,.T.);
#151=EDGE_CURVE('',#124,#123,#56,.T.);
#152=EDGE_CURVE('',#125,#124,#57,.T.);
#153=EDGE_CURVE('',#126,#125,#104,.T.);
#154=EDGE_CURVE('',#127,#126,#58,.T.);
#155=EDGE_CURVE('',#128,#127,#59,.T.);
#156=EDGE_CURVE('',#129,#128,#60,.T.);
#157=EDGE_CURVE('',#130,#129,#61,.T.);
#158=EDGE_CURVE('',#131,#130,#62,.T.);
#159=EDGE_CURVE('',#132,#131,#63,.T.);
#160=EDGE_CURVE('',#133,#132,#64,.T.);
#161=EDGE_CURVE('',#134,#133,#65,.T.);
#162=EDGE_CURVE('',#122,#134,#66,.T.);
#163=EDGE_CURVE('',#135,#136,#105,.T.);
#164=EDGE_CURVE('',#137,#135,#67,.T.);
#165=EDGE_CURVE('',#138,#137,#68,.T.);
#166=EDGE_CURVE('',#139,#138,#69,.T.);
#167=EDGE_CURVE('',#140,#139,#70,.T.);
#168=EDGE_CURVE('',#141,#140,#71,.T.);
#169=EDGE_CURVE('',#142,#141,#72,.T.);
#170=EDGE_CURVE('',#143,#142,#73,.T.);
#171=EDGE_CURVE('',#144,#143,#74,.T.);
#172=EDGE_CURVE('',#145,#144,#75,.T.);
#173=EDGE_CURVE('',#146,#145,#106,.T.);
#174=EDGE_CURVE('',#147,#146,#76,.T.);
#175=EDGE_CURVE('',#148,#147,#77,.T.);
#176=EDGE_CURVE('',#136,#148,#78,.T.);
#177=EDGE_CURVE('',#136,#121,#107,.T.);
#178=EDGE_CURVE('',#148,#123,#108,.T.);
#179=EDGE_CURVE('',#122,#135,#109,.T.);
#180=EDGE_CURVE('',#137,#134,#110,.T.);
#181=EDGE_CURVE('',#138,#133,#111,.T.);
#182=EDGE_CURVE('',#139,#132,#112,.T.);
#183=EDGE_CURVE('',#140,#131,#113,.T.);
#184=EDGE_CURVE('',#141,#130,#114,.T.);
#185=EDGE_CURVE('',#125,#146,#115,.T.);
#186=EDGE_CURVE('',#145,#126,#116,.T.);
#187=EDGE_CURVE('',#144,#127,#117,.T.);
#188=EDGE_CURVE('',#147,#124,#118,.T.);
#189=EDGE_CURVE('',#142,#129,#119,.T.);
#190=EDGE_CURVE('',#143,#128,#120,.T.);
#191=ORIENTED_EDGE('',*,*,#149,.F.);
#192=ORIENTED_EDGE('',*,*,#150,.F.);
#193=ORIENTED_EDGE('',*,*,#151,.F.);
#194=ORIENTED_EDGE('',*,*,#152,.F.);
#195=ORIENTED_EDGE('',*,*,#153,.F.);
#196=ORIENTED_EDGE('',*,*,#154,.F.);
#197=ORIENTED_EDGE('',*,*,#155,.F.);
#198=ORIENTED_EDGE('',*,*,#156,.F.);
#199=ORIENTED_EDGE('',*,*,#157,.F.);
#200=ORIENTED_EDGE('',*,*,#158,.F.);
#201=ORIENTED_EDGE('',*,*,#159,.F.);
#202=ORIENTED_EDGE('',*,*,#160,.F.);
#203=ORIENTED_EDGE('',*,*,#161,.F.);
#204=ORIENTED_EDGE('',*,*,#162,.F.);
#205=ORIENTED_EDGE('',*,*,#163,.F.);
#206=ORIENTED_EDGE('',*,*,#164,.F.);
#207=ORIENTED_EDGE('',*,*,#165,.F.);
#208=ORIENTED_EDGE('',*,*,#166,.F.);
#209=ORIENTED_EDGE('',*,*,#167,.F.);
#210=ORIENTED_EDGE('',*,*,#168,.F.);
#211=ORIENTED_EDGE('',*,*,#169,.F.);
#212=ORIENTED_EDGE('',*,*,#170,.F.);
#213=ORIENTED_EDGE('',*,*,#171,.F.);
#214=ORIENTED_EDGE('',*,*,#172,.F.);
#215=ORIENTED_EDGE('',*,*,#173,.F.);
#216=ORIENTED_EDGE('',*,*,#174,.F.);
#217=ORIENTED_EDGE('',*,*,#175,.F.);
#218=ORIENTED_EDGE('',*,*,#176,.F.);
#219=ORIENTED_EDGE('',*,*,#150,.T.);
#220=ORIENTED_EDGE('',*,*,#177,.F.);
#221=ORIENTED_EDGE('',*,*,#176,.T.);
#222=ORIENTED_EDGE('',*,*,#178,.T.);
#223=ORIENTED_EDGE('',*,*,#149,.T.);
#224=ORIENTED_EDGE('',*,*,#179,.T.);
#225=ORIENTED_EDGE('',*,*,#163,.T.);
#226=ORIENTED_EDGE('',*,*,#177,.T.);
#227=ORIENTED_EDGE('',*,*,#162,.T.);
#228=ORIENTED_EDGE('',*,*,#180,.F.);
#229=ORIENTED_EDGE('',*,*,#164,.T.);
#230=ORIENTED_EDGE('',*,*,#179,.F.);
#231=ORIENTED_EDGE('',*,*,#161,.T.);
#232=ORIENTED_EDGE('',*,*,#181,.F.);
#233=ORIENTED_EDGE('',*,*,#165,.T.);
#234=ORIENTED_EDGE('',*,*,#180,.T.);
#235=ORIENTED_EDGE('',*,*,#160,.T.);
#236=ORIENTED_EDGE('',*,*,#182,.F.);
#237=ORIENTED_EDGE('',*,*,#166,.T.);
#238=ORIENTED_EDGE('',*,*,#181,.T.);
#239=ORIENTED_EDGE('',*,*,#159,.T.);
#240=ORIENTED_EDGE('',*,*,#183,.F.);
#241=ORIENTED_EDGE('',*,*,#167,.T.);
#242=ORIENTED_EDGE('',*,*,#182,.T.);
#243=ORIENTED_EDGE('',*,*,#158,.T.);
#244=ORIENTED_EDGE('',*,*,#184,.F.);
#245=ORIENTED_EDGE('',*,*,#168,.T.);
#246=ORIENTED_EDGE('',*,*,#183,.T.);
#247=ORIENTED_EDGE('',*,*,#153,.T.);
#248=ORIENTED_EDGE('',*,*,#185,.T.);
#249=ORIENTED_EDGE('',*,*,#173,.T.);
#250=ORIENTED_EDGE('',*,*,#186,.T.);
#251=ORIENTED_EDGE('',*,*,#154,.T.);
#252=ORIENTED_EDGE('',*,*,#186,.F.);
#253=ORIENTED_EDGE('',*,*,#172,.T.);
#254=ORIENTED_EDGE('',*,*,#187,.T.);
#255=ORIENTED_EDGE('',*,*,#152,.T.);
#256=ORIENTED_EDGE('',*,*,#188,.F.);
#257=ORIENTED_EDGE('',*,*,#174,.T.);
#258=ORIENTED_EDGE('',*,*,#185,.F.);
#259=ORIENTED_EDGE('',*,*,#157,.T.);
#260=ORIENTED_EDGE('',*,*,#189,.F.);
#261=ORIENTED_EDGE('',*,*,#169,.T.);
#262=ORIENTED_EDGE('',*,*,#184,.T.);
#263=ORIENTED_EDGE('',*,*,#156,.T.);
#264=ORIENTED_EDGE('',*,*,#190,.F.);
#265=ORIENTED_EDGE('',*,*,#170,.T.);
#266=ORIENTED_EDGE('',*,*,#189,.T.);
#267=ORIENTED_EDGE('',*,*,#155,.T.);
#268=ORIENTED_EDGE('',*,*,#187,.F.);
#269=ORIENTED_EDGE('',*,*,#171,.T.);
#270=ORIENTED_EDGE('',*,*,#190,.T.);
#271=ORIENTED_EDGE('',*,*,#151,.T.);
#272=ORIENTED_EDGE('',*,*,#178,.F.);
#273=ORIENTED_EDGE('',*,*,#175,.T.);
#274=ORIENTED_EDGE('',*,*,#188,.T.);
#275=PLANE('',#319);
#276=PLANE('',#322);
#277=PLANE('',#325);
#278=PLANE('',#332);
#279=PLANE('',#336);
#280=PLANE('',#345);
#281=PLANE('',#347);
#282=PLANE('',#351);
#283=ADVANCED_FACE('',(#23),#275,.F.);
#284=ADVANCED_FACE('',(#24),#276,.F.);
#285=ADVANCED_FACE('',(#25),#277,.T.);
#286=ADVANCED_FACE('',(#26),#21,.T.);
#287=ADVANCED_FACE('',(#27),#15,.T.);
#288=ADVANCED_FACE('',(#28),#278,.T.);
#289=ADVANCED_FACE('',(#29),#16,.T.);
#290=ADVANCED_FACE('',(#30),#279,.T.);
#291=ADVANCED_FACE('',(#31),#17,.T.);
#292=ADVANCED_FACE('',(#32),#22,.T.);
#293=ADVANCED_FACE('',(#33),#18,.T.);
#294=ADVANCED_FACE('',(#34),#280,.T.);
#295=ADVANCED_FACE('',(#35),#281,.T.);
#296=ADVANCED_FACE('',(#36),#19,.T.);
#297=ADVANCED_FACE('',(#37),#282,.T.);
#298=ADVANCED_FACE('',(#38),#20,.F.);
#299=CLOSED_SHELL('',(#283,#284,#285,#286,#287,#288,#289,#290,#291,#292,
#293,#294,#295,#296,#297,#298));
#300=DERIVED_UNIT_ELEMENT(#302,1.);
#301=DERIVED_UNIT_ELEMENT(#539,-3.);
#302=(
MASS_UNIT()
NAMED_UNIT(*)
SI_UNIT($,.GRAM.)
);
#303=DERIVED_UNIT((#300,#301));
#304=MEASURE_REPRESENTATION_ITEM('density measure',
POSITIVE_RATIO_MEASURE(7.85),#303);
#305=PROPERTY_DEFINITION_REPRESENTATION(#310,#307);
#306=PROPERTY_DEFINITION_REPRESENTATION(#311,#308);
#307=REPRESENTATION('material name',(#309),#536);
#308=REPRESENTATION('density',(#304),#536);
#309=DESCRIPTIVE_REPRESENTATION_ITEM('Stahl','Stahl');
#310=PROPERTY_DEFINITION('material property','material name',#546);
#311=PROPERTY_DEFINITION('material property','density of part',#546);
#312=DATE_TIME_ROLE('creation_date');
#313=APPLIED_DATE_AND_TIME_ASSIGNMENT(#314,#312,(#546));
#314=DATE_AND_TIME(#315,#316);
#315=CALENDAR_DATE(2009,5,8);
#316=LOCAL_TIME(0,0,0.,#317);
#317=COORDINATED_UNIVERSAL_TIME_OFFSET(0,0,.BEHIND.);
#318=AXIS2_PLACEMENT_3D('placement',#447,#353,#354);
#319=AXIS2_PLACEMENT_3D('',#448,#355,#356);
#320=AXIS2_PLACEMENT_3D('',#451,#357,#358);
#321=AXIS2_PLACEMENT_3D('',#459,#362,#363);
#322=AXIS2_PLACEMENT_3D('',#477,#373,#374);
#323=AXIS2_PLACEMENT_3D('',#480,#375,#376);
#324=AXIS2_PLACEMENT_3D('',#500,#386,#387);
#325=AXIS2_PLACEMENT_3D('',#506,#391,#392);
#326=AXIS2_PLACEMENT_3D('',#507,#393,#394);
#327=AXIS2_PLACEMENT_3D('',#508,#395,#396);
#328=AXIS2_PLACEMENT_3D('',#509,#397,#398);
#329=AXIS2_PLACEMENT_3D('',#510,#399,#400);
#330=AXIS2_PLACEMENT_3D('',#511,#401,#402);
#331=AXIS2_PLACEMENT_3D('',#512,#403,#404);
#332=AXIS2_PLACEMENT_3D('',#513,#405,#406);
#333=AXIS2_PLACEMENT_3D('',#514,#407,#408);
#334=AXIS2_PLACEMENT_3D('',#515,#409,#410);
#335=AXIS2_PLACEMENT_3D('',#516,#411,#412);
#336=AXIS2_PLACEMENT_3D('',#517,#413,#414);
#337=AXIS2_PLACEMENT_3D('',#518,#415,#416);
#338=AXIS2_PLACEMENT_3D('',#519,#417,#418);
#339=AXIS2_PLACEMENT_3D('',#520,#419,#420);
#340=AXIS2_PLACEMENT_3D('',#521,#421,#422);
#341=AXIS2_PLACEMENT_3D('',#522,#423,#424);
#342=AXIS2_PLACEMENT_3D('',#523,#425,#426);
#343=AXIS2_PLACEMENT_3D('',#524,#427,#428);
#344=AXIS2_PLACEMENT_3D('',#525,#429,#430);
#345=AXIS2_PLACEMENT_3D('',#526,#431,#432);
#346=AXIS2_PLACEMENT_3D('',#527,#433,#434);
#347=AXIS2_PLACEMENT_3D('',#528,#435,#436);
#348=AXIS2_PLACEMENT_3D('',#529,#437,#438);
#349=AXIS2_PLACEMENT_3D('',#530,#439,#440);
#350=AXIS2_PLACEMENT_3D('',#531,#441,#442);
#351=AXIS2_PLACEMENT_3D('',#532,#443,#444);
#352=AXIS2_PLACEMENT_3D('',#533,#445,#446);
#353=DIRECTION('axis',(0.,0.,1.));
#354=DIRECTION('refdir',(1.,0.,0.));
#355=DIRECTION('center_axis',(0.,-0.5,-0.866025403784439));
#356=DIRECTION('ref_axis',(-1.,0.,0.));
#357=DIRECTION('center_axis',(0.,-0.5,-0.866025403784439));
#358=DIRECTION('ref_axis',(0.,0.866025403784439,-0.5));
#359=DIRECTION('',(0.,0.866025403784439,-0.5));
#360=DIRECTION('',(-1.,0.,0.));
#361=DIRECTION('',(0.,-0.866025403784439,0.5));
#362=DIRECTION('center_axis',(0.,-0.5,-0.866025403784439));
#363=DIRECTION('ref_axis',(0.,0.866025403784439,-0.5));
#364=DIRECTION('',(1.,0.,0.));
#365=DIRECTION('',(0.,0.866025403784439,-0.5));
#366=DIRECTION('',(1.,0.,0.));
#367=DIRECTION('',(0.,-0.866025403784439,0.5));
#368=DIRECTION('',(1.,0.,0.));
#369=DIRECTION('',(0.,0.866025403784439,-0.5));
#370=DIRECTION('',(1.,0.,0.));
#371=DIRECTION('',(0.,-0.866025403784439,0.5));
#372=DIRECTION('',(1.,0.,0.));
#373=DIRECTION('center_axis',(0.,-0.5,0.866025403784439));
#374=DIRECTION('ref_axis',(1.,0.,0.));
#375=DIRECTION('center_axis',(0.,-0.5,0.866025403784439));
#376=DIRECTION('ref_axis',(0.,0.866025403784439,0.5));
#377=DIRECTION('',(-1.,0.,0.));
#378=DIRECTION('',(0.,0.866025403784439,0.5));
#379=DIRECTION('',(-1.,0.,0.));
#380=DIRECTION('',(0.,-0.866025403784439,-0.5));
#381=DIRECTION('',(-1.,0.,0.));
#382=DIRECTION('',(0.,0.866025403784439,0.5));
#383=DIRECTION('',(-1.,0.,0.));
#384=DIRECTION('',(0.,-0.866025403784439,-0.5));
#385=DIRECTION('',(-1.,0.,0.));
#386=DIRECTION('center_axis',(0.,-0.5,0.866025403784439));
#387=DIRECTION('ref_axis',(0.,0.866025403784439,0.5));
#388=DIRECTION('',(0.,0.866025403784439,0.5));
#389=DIRECTION('',(1.,0.,0.));
#390=DIRECTION('',(0.,-0.866025403784439,-0.5));
#391=DIRECTION('center_axis',(-1.,0.,0.));
#392=DIRECTION('ref_axis',(0.,0.,1.));
#393=DIRECTION('center_axis',(1.,0.,0.));
#394=DIRECTION('ref_axis',(0.,-1.,1.22460635382238E-16));
#395=DIRECTION('center_axis',(1.,0.,0.));
#396=DIRECTION('ref_axis',(0.,1.,0.));
#397=DIRECTION('center_axis',(1.,0.,0.));
#398=DIRECTION('ref_axis',(0.,-1.,-6.12323399573677E-17));
#399=DIRECTION('center_axis',(-1.,0.,0.));
#400=DIRECTION('ref_axis',(0.,-1.,1.22460635382238E-16));
#401=DIRECTION('center_axis',(1.,0.,0.));
#402=DIRECTION('ref_axis',(0.,-1.,-1.22464679914735E-16));
#403=DIRECTION('center_axis',(1.,0.,0.));
#404=DIRECTION('ref_axis',(0.,1.,0.));
#405=DIRECTION('center_axis',(1.,0.,0.));
#406=DIRECTION('ref_axis',(0.,0.,-1.));
#407=DIRECTION('center_axis',(1.,0.,0.));
#408=DIRECTION('ref_axis',(0.,1.,0.));
#409=DIRECTION('center_axis',(1.,0.,0.));
#410=DIRECTION('ref_axis',(0.,-1.,-1.22464679914735E-16));
#411=DIRECTION('center_axis',(1.,0.,0.));
#412=DIRECTION('ref_axis',(0.,1.,0.));
#413=DIRECTION('center_axis',(-1.,0.,0.));
#414=DIRECTION('ref_axis',(0.,0.,1.));
#415=DIRECTION('center_axis',(1.,0.,0.));
#416=DIRECTION('ref_axis',(0.,1.,0.));
#417=DIRECTION('center_axis',(1.,0.,0.));
#418=DIRECTION('ref_axis',(0.,-1.,-1.22464679914735E-16));
#419=DIRECTION('center_axis',(1.,0.,0.));
#420=DIRECTION('ref_axis',(0.,1.,0.));
#421=DIRECTION('center_axis',(1.,0.,0.));
#422=DIRECTION('ref_axis',(0.,-1.,-6.12323399573677E-17));
#423=DIRECTION('center_axis',(-1.,0.,0.));
#424=DIRECTION('ref_axis',(0.,-1.,1.22460635382238E-16));
#425=DIRECTION('center_axis',(1.,0.,0.));
#426=DIRECTION('ref_axis',(0.,-1.,1.22460635382238E-16));
#427=DIRECTION('center_axis',(1.,0.,0.));
#428=DIRECTION('ref_axis',(0.,-1.,-1.22464679914735E-16));
#429=DIRECTION('center_axis',(1.,0.,0.));
#430=DIRECTION('ref_axis',(0.,1.,0.));
#431=DIRECTION('center_axis',(1.,0.,0.));
#432=DIRECTION('ref_axis',(0.,0.,-1.));
#433=DIRECTION('center_axis',(1.,0.,0.));
#434=DIRECTION('ref_axis',(0.,1.,0.));
#435=DIRECTION('center_axis',(1.,0.,0.));
#436=DIRECTION('ref_axis',(0.,0.,-1.));
#437=DIRECTION('center_axis',(1.,0.,0.));
#438=DIRECTION('ref_axis',(0.,1.,0.));
#439=DIRECTION('center_axis',(1.,0.,0.));
#440=DIRECTION('ref_axis',(0.,-1.,-1.22464679914735E-16));
#441=DIRECTION('center_axis',(1.,0.,0.));
#442=DIRECTION('ref_axis',(0.,1.,0.));
#443=DIRECTION('center_axis',(-1.,0.,0.));
#444=DIRECTION('ref_axis',(0.,0.,1.));
#445=DIRECTION('center_axis',(1.,0.,0.));
#446=DIRECTION('ref_axis',(0.,-1.,-1.22464679914735E-16));
#447=CARTESIAN_POINT('',(0.,0.,0.));
#448=CARTESIAN_POINT('Origin',(22.5,8.66025403784438,-5.));
#449=CARTESIAN_POINT('',(-22.5,13.6399001096049,-7.875));
#450=CARTESIAN_POINT('',(-22.25,13.856406460551,-8.));
#451=CARTESIAN_POINT('Origin',(-22.25,13.6399001096049,-7.875));
#452=CARTESIAN_POINT('',(-22.5,8.66025403784438,-5.));
#453=CARTESIAN_POINT('',(-22.5,9.20512701892219,-5.31458256229943));
#454=CARTESIAN_POINT('',(22.5,8.66025403784438,-5.));
#455=CARTESIAN_POINT('',(0.,8.66025403784438,-5.));
#456=CARTESIAN_POINT('',(22.5,13.6399001096049,-7.875));
#457=CARTESIAN_POINT('',(22.5,9.20512701892219,-5.31458256229943));
#458=CARTESIAN_POINT('',(22.25,13.856406460551,-8.));
#459=CARTESIAN_POINT('Origin',(22.25,13.6399001096049,-7.875));
#460=CARTESIAN_POINT('',(15.75,13.856406460551,-8.));
#461=CARTESIAN_POINT('',(19.125,13.856406460551,-8.));
#462=CARTESIAN_POINT('',(15.75,13.1202848673342,-7.575));
#463=CARTESIAN_POINT('',(15.75,10.1707520189222,-5.87208641598566));
#464=CARTESIAN_POINT('',(14.15,13.1202848673342,-7.575));
#465=CARTESIAN_POINT('',(14.95,13.1202848673342,-7.575));
#466=CARTESIAN_POINT('',(14.15,13.856406460551,-8.));
#467=CARTESIAN_POINT('',(14.15,10.1707520189222,-5.87208641598566));
#468=CARTESIAN_POINT('',(-14.15,13.856406460551,-8.));
#469=CARTESIAN_POINT('',(0.,13.856406460551,-8.));
#470=CARTESIAN_POINT('',(-14.15,13.1202848673342,-7.575));
#471=CARTESIAN_POINT('',(-14.15,10.1707520189222,-5.87208641598566));
#472=CARTESIAN_POINT('',(-15.75,13.1202848673342,-7.575));
#473=CARTESIAN_POINT('',(-14.95,13.1202848673342,-7.575));
#474=CARTESIAN_POINT('',(-15.75,13.856406460551,-8.));
#475=CARTESIAN_POINT('',(-15.75,10.1707520189222,-5.87208641598566));
#476=CARTESIAN_POINT('',(-19.125,13.856406460551,-8.));
#477=CARTESIAN_POINT('Origin',(22.5,13.856406460551,8.00000000000001));
#478=CARTESIAN_POINT('',(-22.25,13.856406460551,8.00000000000001));
#479=CARTESIAN_POINT('',(-22.5,13.6399001096049,7.87500000000001));
#480=CARTESIAN_POINT('Origin',(-22.25,13.6399001096049,7.875));
#481=CARTESIAN_POINT('',(-15.75,13.856406460551,8.00000000000001));
#482=CARTESIAN_POINT('',(-19.125,13.856406460551,8.00000000000001));
#483=CARTESIAN_POINT('',(-15.75,13.1202848673342,7.575));
#484=CARTESIAN_POINT('',(-15.75,12.7688282302755,7.37208641598566));
#485=CARTESIAN_POINT('',(-14.15,13.1202848673342,7.575));
#486=CARTESIAN_POINT('',(-14.95,13.1202848673342,7.575));
#487=CARTESIAN_POINT('',(-14.15,13.856406460551,8.00000000000001));
#488=CARTESIAN_POINT('',(-14.15,12.7688282302755,7.37208641598566));
#489=CARTESIAN_POINT('',(14.15,13.856406460551,8.00000000000001));
#490=CARTESIAN_POINT('',(0.,13.856406460551,8.00000000000001));
#491=CARTESIAN_POINT('',(14.15,13.1202848673342,7.575));
#492=CARTESIAN_POINT('',(14.15,12.7688282302755,7.37208641598566));
#493=CARTESIAN_POINT('',(15.75,13.1202848673342,7.575));
#494=CARTESIAN_POINT('',(14.95,13.1202848673342,7.575));
#495=CARTESIAN_POINT('',(15.75,13.856406460551,8.00000000000001));
#496=CARTESIAN_POINT('',(15.75,12.7688282302755,7.37208641598566));
#497=CARTESIAN_POINT('',(22.25,13.856406460551,8.00000000000001));
#498=CARTESIAN_POINT('',(19.125,13.856406460551,8.00000000000001));
#499=CARTESIAN_POINT('',(22.5,13.6399001096049,7.87500000000001));
#500=CARTESIAN_POINT('Origin',(22.25,13.6399001096049,7.875));
#501=CARTESIAN_POINT('',(22.5,8.66025403784438,5.));
#502=CARTESIAN_POINT('',(22.5,11.8032032302755,6.81458256229943));
#503=CARTESIAN_POINT('',(-22.5,8.66025403784438,5.));
#504=CARTESIAN_POINT('',(0.,8.66025403784438,5.));
#505=CARTESIAN_POINT('',(-22.5,11.8032032302755,6.81458256229943));
#506=CARTESIAN_POINT('Origin',(-22.5,13.,0.));
#507=CARTESIAN_POINT('Origin',(-22.5,0.,0.));
#508=CARTESIAN_POINT('Origin',(-22.5,0.,0.));
#509=CARTESIAN_POINT('Origin',(-22.25,0.,0.));
#510=CARTESIAN_POINT('Origin',(-22.25,0.,0.));
#511=CARTESIAN_POINT('Origin',(-19.125,0.,0.));
#512=CARTESIAN_POINT('Origin',(-15.75,0.,0.));
#513=CARTESIAN_POINT('Origin',(-15.75,15.575,0.));
#514=CARTESIAN_POINT('Origin',(-15.75,0.,0.));
#515=CARTESIAN_POINT('Origin',(-14.95,0.,0.));
#516=CARTESIAN_POINT('Origin',(-14.15,0.,0.));
#517=CARTESIAN_POINT('Origin',(-14.15,15.575,0.));
#518=CARTESIAN_POINT('Origin',(-14.15,0.,0.));
#519=CARTESIAN_POINT('Origin',(0.,0.,0.));
#520=CARTESIAN_POINT('Origin',(14.15,0.,0.));
#521=CARTESIAN_POINT('Origin',(22.25,0.,0.));
#522=CARTESIAN_POINT('Origin',(22.5,0.,0.));
#523=CARTESIAN_POINT('Origin',(22.25,0.,0.));
#524=CARTESIAN_POINT('Origin',(19.125,0.,0.));
#525=CARTESIAN_POINT('Origin',(15.75,0.,0.));
#526=CARTESIAN_POINT('Origin',(22.5,13.,0.));
#527=CARTESIAN_POINT('Origin',(22.5,0.,0.));
#528=CARTESIAN_POINT('Origin',(14.15,15.575,0.));
#529=CARTESIAN_POINT('Origin',(14.15,0.,0.));
#530=CARTESIAN_POINT('Origin',(14.95,0.,0.));
#531=CARTESIAN_POINT('Origin',(15.75,0.,0.));
#532=CARTESIAN_POINT('Origin',(15.75,15.575,0.));
#533=CARTESIAN_POINT('Origin',(0.,0.,0.));
#534=UNCERTAINTY_MEASURE_WITH_UNIT(LENGTH_MEASURE(0.01),#538,
'DISTANCE_ACCURACY_VALUE',
'Maximum model space distance between geometric entities at asserted c
onnectivities');
#535=UNCERTAINTY_MEASURE_WITH_UNIT(LENGTH_MEASURE(0.01),#538,
'DISTANCE_ACCURACY_VALUE',
'Maximum model space distance between geometric entities at asserted c
onnectivities');
#536=(
GEOMETRIC_REPRESENTATION_CONTEXT(3)
GLOBAL_UNCERTAINTY_ASSIGNED_CONTEXT((#534))
GLOBAL_UNIT_ASSIGNED_CONTEXT((#538,#540,#541))
REPRESENTATION_CONTEXT('','3D')
);
#537=(
GEOMETRIC_REPRESENTATION_CONTEXT(3)
GLOBAL_UNCERTAINTY_ASSIGNED_CONTEXT((#535))
GLOBAL_UNIT_ASSIGNED_CONTEXT((#538,#540,#541))
REPRESENTATION_CONTEXT('','3D')
);
#538=(
LENGTH_UNIT()
NAMED_UNIT(*)
SI_UNIT(.MILLI.,.METRE.)
);
#539=(
LENGTH_UNIT()
NAMED_UNIT(*)
SI_UNIT(.CENTI.,.METRE.)
);
#540=(
NAMED_UNIT(*)
PLANE_ANGLE_UNIT()
SI_UNIT($,.RADIAN.)
);
#541=(
NAMED_UNIT(*)
SI_UNIT($,.STERADIAN.)
SOLID_ANGLE_UNIT()
);
#542=SHAPE_DEFINITION_REPRESENTATION(#543,#544);
#543=PRODUCT_DEFINITION_SHAPE('',$,#546);
#544=SHAPE_REPRESENTATION('',(#318),#536);
#545=PRODUCT_DEFINITION_CONTEXT('part definition',#550,'design');
#546=PRODUCT_DEFINITION('leer','00015430',#547,#545);
#547=PRODUCT_DEFINITION_FORMATION('',$,#552);
#548=PRODUCT_RELATED_PRODUCT_CATEGORY('00015430','00015430',(#552));
#549=APPLICATION_PROTOCOL_DEFINITION('international standard',
'automotive_design',2009,#550);
#550=APPLICATION_CONTEXT(
'Core Data for Automotive Mechanical Design Process');
#551=PRODUCT_CONTEXT('part definition',#550,'mechanical');
#552=PRODUCT('leer','00015430',
'Linearlager mit Stahlk\X\E4fig mit Ausschnitt',(#551));
#553=PRESENTATION_STYLE_ASSIGNMENT((#554));
#554=SURFACE_STYLE_USAGE(.BOTH.,#557);
#555=SURFACE_STYLE_RENDERING_WITH_PROPERTIES($,#561,(#556));
#556=SURFACE_STYLE_TRANSPARENT(0.);
#557=SURFACE_SIDE_STYLE('',(#558,#555));
#558=SURFACE_STYLE_FILL_AREA(#559);
#559=FILL_AREA_STYLE('',(#560));
#560=FILL_AREA_STYLE_COLOUR('',#561);
#561=COLOUR_RGB('',0.87843137254902,0.874509803921569,0.858823529411765);
ENDSEC;
END-ISO-10303-21;
