ISO-10303-21;
HEADER;
/* Generated by software containing ST-Developer
 * from STEP Tools, Inc. (www.steptools.com) 
 */

FILE_DESCRIPTION(
/* description */ (
'Linearlager mit Kunstsfoffk\X\E4fig geschlitzt beidseitig abgedichtet'),

/* implementation_level */ '2;1');

FILE_NAME(
/* name */ '\\\\fileserver\\Daten2\\STEP Daten fuer PIM\\101271-0.step',

/* time_stamp */ '2021-09-02T13:22:58+02:00',
/* author */ ('Praktikum'),
/* organization */ (''),
/* preprocessor_version */ 'ST-DEVELOPER v18.1',
/* originating_system */ 'Autodesk Inventor 2021',
/* authorisation */ '');

FILE_SCHEMA (('AUTOMOTIVE_DESIGN { 1 0 10303 214 3 1 1 }'));
ENDSEC;

DATA;
#10=MECHANICAL_DESIGN_GEOMETRIC_PRESENTATION_REPRESENTATION('',(#13),#561);
#11=SHAPE_REPRESENTATION_RELATIONSHIP('SRR','None',#568,#12);
#12=ADVANCED_BREP_SHAPE_REPRESENTATION('',(#14),#560);
#13=STYLED_ITEM('',(#577),#14);
#14=MANIFOLD_SOLID_BREP('Volumenk\X\F6rper1',#299);
#15=CYLINDRICAL_SURFACE('',#327,11.);
#16=CYLINDRICAL_SURFACE('',#331,10.5);
#17=CYLINDRICAL_SURFACE('',#335,11.);
#18=CYLINDRICAL_SURFACE('',#341,11.);
#19=CYLINDRICAL_SURFACE('',#345,10.5);
#20=CYLINDRICAL_SURFACE('',#348,5.99999999999999);
#21=TOROIDAL_SURFACE('',#324,10.75,0.25);
#22=TOROIDAL_SURFACE('',#339,10.75,0.25);
#23=CIRCLE('',#322,10.75);
#24=CIRCLE('',#323,6.);
#25=CIRCLE('',#325,10.75);
#26=CIRCLE('',#326,11.);
#27=CIRCLE('',#328,11.);
#28=CIRCLE('',#330,10.5);
#29=CIRCLE('',#332,10.5);
#30=CIRCLE('',#334,11.);
#31=CIRCLE('',#336,11.);
#32=CIRCLE('',#338,6.);
#33=CIRCLE('',#340,11.);
#34=CIRCLE('',#342,11.);
#35=CIRCLE('',#344,10.5);
#36=CIRCLE('',#346,10.5);
#37=FACE_OUTER_BOUND('',#53,.T.);
#38=FACE_OUTER_BOUND('',#54,.T.);
#39=FACE_OUTER_BOUND('',#55,.T.);
#40=FACE_OUTER_BOUND('',#56,.T.);
#41=FACE_OUTER_BOUND('',#57,.T.);
#42=FACE_OUTER_BOUND('',#58,.T.);
#43=FACE_OUTER_BOUND('',#59,.T.);
#44=FACE_OUTER_BOUND('',#60,.T.);
#45=FACE_OUTER_BOUND('',#61,.T.);
#46=FACE_OUTER_BOUND('',#62,.T.);
#47=FACE_OUTER_BOUND('',#63,.T.);
#48=FACE_OUTER_BOUND('',#64,.T.);
#49=FACE_OUTER_BOUND('',#65,.T.);
#50=FACE_OUTER_BOUND('',#66,.T.);
#51=FACE_OUTER_BOUND('',#67,.T.);
#52=FACE_OUTER_BOUND('',#68,.T.);
#53=EDGE_LOOP('',(#191,#192,#193,#194,#195,#196,#197,#198,#199,#200,#201,
#202,#203,#204));
#54=EDGE_LOOP('',(#205,#206,#207,#208,#209,#210,#211,#212,#213,#214,#215,
#216,#217,#218));
#55=EDGE_LOOP('',(#219,#220,#221,#222));
#56=EDGE_LOOP('',(#223,#224,#225,#226));
#57=EDGE_LOOP('',(#227,#228,#229,#230));
#58=EDGE_LOOP('',(#231,#232,#233,#234));
#59=EDGE_LOOP('',(#235,#236,#237,#238));
#60=EDGE_LOOP('',(#239,#240,#241,#242));
#61=EDGE_LOOP('',(#243,#244,#245,#246));
#62=EDGE_LOOP('',(#247,#248,#249,#250));
#63=EDGE_LOOP('',(#251,#252,#253,#254));
#64=EDGE_LOOP('',(#255,#256,#257,#258));
#65=EDGE_LOOP('',(#259,#260,#261,#262));
#66=EDGE_LOOP('',(#263,#264,#265,#266));
#67=EDGE_LOOP('',(#267,#268,#269,#270));
#68=EDGE_LOOP('',(#271,#272,#273,#274));
#69=B_SPLINE_CURVE_WITH_KNOTS('',3,(#447,#448,#449,#450,#451,#452,#453,
#454,#455,#456),.UNSPECIFIED.,.F.,.F.,(4,2,2,2,4),(-0.0370684181737082,
-0.0277828128912953,-0.0185090851545582,-0.00924903158168552,0.),
 .UNSPECIFIED.);
#70=B_SPLINE_CURVE_WITH_KNOTS('',3,(#464,#465,#466,#467,#468,#469,#470,
#471,#472,#473),.UNSPECIFIED.,.F.,.F.,(4,2,2,2,4),(0.,0.00924903158168552,
0.0185090851545581,0.0277828128912953,0.0370684181737082),.UNSPECIFIED.);
#71=B_SPLINE_CURVE_WITH_KNOTS('',3,(#486,#487,#488,#489,#490,#491,#492,
#493,#494,#495),.UNSPECIFIED.,.F.,.F.,(4,2,2,2,4),(0.,0.00924903158168501,
0.0185090851545582,0.0277828128912954,0.0370684181737083),.UNSPECIFIED.);
#72=B_SPLINE_CURVE_WITH_KNOTS('',3,(#515,#516,#517,#518,#519,#520,#521,
#522,#523,#524),.UNSPECIFIED.,.F.,.F.,(4,2,2,2,4),(-0.0370684181737083,
-0.0277828128912954,-0.0185090851545583,-0.00924903158168502,0.),
 .UNSPECIFIED.);
#73=LINE('',#439,#97);
#74=LINE('',#441,#98);
#75=LINE('',#443,#99);
#76=LINE('',#445,#100);
#77=LINE('',#458,#101);
#78=LINE('',#460,#102);
#79=LINE('',#462,#103);
#80=LINE('',#475,#104);
#81=LINE('',#477,#105);
#82=LINE('',#479,#106);
#83=LINE('',#481,#107);
#84=LINE('',#482,#108);
#85=LINE('',#497,#109);
#86=LINE('',#499,#110);
#87=LINE('',#501,#111);
#88=LINE('',#503,#112);
#89=LINE('',#505,#113);
#90=LINE('',#507,#114);
#91=LINE('',#509,#115);
#92=LINE('',#511,#116);
#93=LINE('',#513,#117);
#94=LINE('',#526,#118);
#95=LINE('',#528,#119);
#96=LINE('',#529,#120);
#97=VECTOR('',#353,10.);
#98=VECTOR('',#354,10.);
#99=VECTOR('',#355,10.);
#100=VECTOR('',#356,10.);
#101=VECTOR('',#357,10.);
#102=VECTOR('',#358,10.);
#103=VECTOR('',#359,10.);
#104=VECTOR('',#360,10.);
#105=VECTOR('',#361,10.);
#106=VECTOR('',#362,10.);
#107=VECTOR('',#363,10.);
#108=VECTOR('',#364,10.);
#109=VECTOR('',#367,10.);
#110=VECTOR('',#368,10.);
#111=VECTOR('',#369,10.);
#112=VECTOR('',#370,10.);
#113=VECTOR('',#371,10.);
#114=VECTOR('',#372,10.);
#115=VECTOR('',#373,10.);
#116=VECTOR('',#374,10.);
#117=VECTOR('',#375,10.);
#118=VECTOR('',#376,10.);
#119=VECTOR('',#377,10.);
#120=VECTOR('',#378,10.);
#121=VERTEX_POINT('',#437);
#122=VERTEX_POINT('',#438);
#123=VERTEX_POINT('',#440);
#124=VERTEX_POINT('',#442);
#125=VERTEX_POINT('',#444);
#126=VERTEX_POINT('',#446);
#127=VERTEX_POINT('',#457);
#128=VERTEX_POINT('',#459);
#129=VERTEX_POINT('',#461);
#130=VERTEX_POINT('',#463);
#131=VERTEX_POINT('',#474);
#132=VERTEX_POINT('',#476);
#133=VERTEX_POINT('',#478);
#134=VERTEX_POINT('',#480);
#135=VERTEX_POINT('',#484);
#136=VERTEX_POINT('',#485);
#137=VERTEX_POINT('',#496);
#138=VERTEX_POINT('',#498);
#139=VERTEX_POINT('',#500);
#140=VERTEX_POINT('',#502);
#141=VERTEX_POINT('',#504);
#142=VERTEX_POINT('',#506);
#143=VERTEX_POINT('',#508);
#144=VERTEX_POINT('',#510);
#145=VERTEX_POINT('',#512);
#146=VERTEX_POINT('',#514);
#147=VERTEX_POINT('',#525);
#148=VERTEX_POINT('',#527);
#149=EDGE_CURVE('',#121,#122,#73,.T.);
#150=EDGE_CURVE('',#123,#121,#74,.T.);
#151=EDGE_CURVE('',#124,#123,#75,.T.);
#152=EDGE_CURVE('',#125,#124,#76,.T.);
#153=EDGE_CURVE('',#126,#125,#69,.T.);
#154=EDGE_CURVE('',#127,#126,#77,.T.);
#155=EDGE_CURVE('',#128,#127,#78,.T.);
#156=EDGE_CURVE('',#129,#128,#79,.T.);
#157=EDGE_CURVE('',#130,#129,#70,.T.);
#158=EDGE_CURVE('',#131,#130,#80,.T.);
#159=EDGE_CURVE('',#132,#131,#81,.T.);
#160=EDGE_CURVE('',#133,#132,#82,.T.);
#161=EDGE_CURVE('',#134,#133,#83,.T.);
#162=EDGE_CURVE('',#122,#134,#84,.T.);
#163=EDGE_CURVE('',#135,#136,#71,.T.);
#164=EDGE_CURVE('',#137,#135,#85,.T.);
#165=EDGE_CURVE('',#138,#137,#86,.T.);
#166=EDGE_CURVE('',#139,#138,#87,.T.);
#167=EDGE_CURVE('',#140,#139,#88,.T.);
#168=EDGE_CURVE('',#141,#140,#89,.T.);
#169=EDGE_CURVE('',#142,#141,#90,.T.);
#170=EDGE_CURVE('',#143,#142,#91,.T.);
#171=EDGE_CURVE('',#144,#143,#92,.T.);
#172=EDGE_CURVE('',#145,#144,#93,.T.);
#173=EDGE_CURVE('',#146,#145,#72,.T.);
#174=EDGE_CURVE('',#147,#146,#94,.T.);
#175=EDGE_CURVE('',#148,#147,#95,.T.);
#176=EDGE_CURVE('',#136,#148,#96,.T.);
#177=EDGE_CURVE('',#136,#126,#23,.T.);
#178=EDGE_CURVE('',#148,#127,#24,.T.);
#179=EDGE_CURVE('',#129,#146,#25,.T.);
#180=EDGE_CURVE('',#145,#130,#26,.T.);
#181=EDGE_CURVE('',#144,#131,#27,.T.);
#182=EDGE_CURVE('',#143,#132,#28,.T.);
#183=EDGE_CURVE('',#142,#133,#29,.T.);
#184=EDGE_CURVE('',#141,#134,#30,.T.);
#185=EDGE_CURVE('',#140,#122,#31,.T.);
#186=EDGE_CURVE('',#147,#128,#32,.T.);
#187=EDGE_CURVE('',#125,#135,#33,.T.);
#188=EDGE_CURVE('',#137,#124,#34,.T.);
#189=EDGE_CURVE('',#138,#123,#35,.T.);
#190=EDGE_CURVE('',#139,#121,#36,.T.);
#191=ORIENTED_EDGE('',*,*,#149,.F.);
#192=ORIENTED_EDGE('',*,*,#150,.F.);
#193=ORIENTED_EDGE('',*,*,#151,.F.);
#194=ORIENTED_EDGE('',*,*,#152,.F.);
#195=ORIENTED_EDGE('',*,*,#153,.F.);
#196=ORIENTED_EDGE('',*,*,#154,.F.);
#197=ORIENTED_EDGE('',*,*,#155,.F.);
#198=ORIENTED_EDGE('',*,*,#156,.F.);
#199=ORIENTED_EDGE('',*,*,#157,.F.);
#200=ORIENTED_EDGE('',*,*,#158,.F.);
#201=ORIENTED_EDGE('',*,*,#159,.F.);
#202=ORIENTED_EDGE('',*,*,#160,.F.);
#203=ORIENTED_EDGE('',*,*,#161,.F.);
#204=ORIENTED_EDGE('',*,*,#162,.F.);
#205=ORIENTED_EDGE('',*,*,#163,.F.);
#206=ORIENTED_EDGE('',*,*,#164,.F.);
#207=ORIENTED_EDGE('',*,*,#165,.F.);
#208=ORIENTED_EDGE('',*,*,#166,.F.);
#209=ORIENTED_EDGE('',*,*,#167,.F.);
#210=ORIENTED_EDGE('',*,*,#168,.F.);
#211=ORIENTED_EDGE('',*,*,#169,.F.);
#212=ORIENTED_EDGE('',*,*,#170,.F.);
#213=ORIENTED_EDGE('',*,*,#171,.F.);
#214=ORIENTED_EDGE('',*,*,#172,.F.);
#215=ORIENTED_EDGE('',*,*,#173,.F.);
#216=ORIENTED_EDGE('',*,*,#174,.F.);
#217=ORIENTED_EDGE('',*,*,#175,.F.);
#218=ORIENTED_EDGE('',*,*,#176,.F.);
#219=ORIENTED_EDGE('',*,*,#154,.T.);
#220=ORIENTED_EDGE('',*,*,#177,.F.);
#221=ORIENTED_EDGE('',*,*,#176,.T.);
#222=ORIENTED_EDGE('',*,*,#178,.T.);
#223=ORIENTED_EDGE('',*,*,#157,.T.);
#224=ORIENTED_EDGE('',*,*,#179,.T.);
#225=ORIENTED_EDGE('',*,*,#173,.T.);
#226=ORIENTED_EDGE('',*,*,#180,.T.);
#227=ORIENTED_EDGE('',*,*,#158,.T.);
#228=ORIENTED_EDGE('',*,*,#180,.F.);
#229=ORIENTED_EDGE('',*,*,#172,.T.);
#230=ORIENTED_EDGE('',*,*,#181,.T.);
#231=ORIENTED_EDGE('',*,*,#159,.T.);
#232=ORIENTED_EDGE('',*,*,#181,.F.);
#233=ORIENTED_EDGE('',*,*,#171,.T.);
#234=ORIENTED_EDGE('',*,*,#182,.T.);
#235=ORIENTED_EDGE('',*,*,#160,.T.);
#236=ORIENTED_EDGE('',*,*,#182,.F.);
#237=ORIENTED_EDGE('',*,*,#170,.T.);
#238=ORIENTED_EDGE('',*,*,#183,.T.);
#239=ORIENTED_EDGE('',*,*,#161,.T.);
#240=ORIENTED_EDGE('',*,*,#183,.F.);
#241=ORIENTED_EDGE('',*,*,#169,.T.);
#242=ORIENTED_EDGE('',*,*,#184,.T.);
#243=ORIENTED_EDGE('',*,*,#162,.T.);
#244=ORIENTED_EDGE('',*,*,#184,.F.);
#245=ORIENTED_EDGE('',*,*,#168,.T.);
#246=ORIENTED_EDGE('',*,*,#185,.T.);
#247=ORIENTED_EDGE('',*,*,#156,.T.);
#248=ORIENTED_EDGE('',*,*,#186,.F.);
#249=ORIENTED_EDGE('',*,*,#174,.T.);
#250=ORIENTED_EDGE('',*,*,#179,.F.);
#251=ORIENTED_EDGE('',*,*,#153,.T.);
#252=ORIENTED_EDGE('',*,*,#187,.T.);
#253=ORIENTED_EDGE('',*,*,#163,.T.);
#254=ORIENTED_EDGE('',*,*,#177,.T.);
#255=ORIENTED_EDGE('',*,*,#152,.T.);
#256=ORIENTED_EDGE('',*,*,#188,.F.);
#257=ORIENTED_EDGE('',*,*,#164,.T.);
#258=ORIENTED_EDGE('',*,*,#187,.F.);
#259=ORIENTED_EDGE('',*,*,#151,.T.);
#260=ORIENTED_EDGE('',*,*,#189,.F.);
#261=ORIENTED_EDGE('',*,*,#165,.T.);
#262=ORIENTED_EDGE('',*,*,#188,.T.);
#263=ORIENTED_EDGE('',*,*,#150,.T.);
#264=ORIENTED_EDGE('',*,*,#190,.F.);
#265=ORIENTED_EDGE('',*,*,#166,.T.);
#266=ORIENTED_EDGE('',*,*,#189,.T.);
#267=ORIENTED_EDGE('',*,*,#149,.T.);
#268=ORIENTED_EDGE('',*,*,#185,.F.);
#269=ORIENTED_EDGE('',*,*,#167,.T.);
#270=ORIENTED_EDGE('',*,*,#190,.T.);
#271=ORIENTED_EDGE('',*,*,#155,.T.);
#272=ORIENTED_EDGE('',*,*,#178,.F.);
#273=ORIENTED_EDGE('',*,*,#175,.T.);
#274=ORIENTED_EDGE('',*,*,#186,.T.);
#275=PLANE('',#319);
#276=PLANE('',#320);
#277=PLANE('',#321);
#278=PLANE('',#329);
#279=PLANE('',#333);
#280=PLANE('',#337);
#281=PLANE('',#343);
#282=PLANE('',#347);
#283=ADVANCED_FACE('',(#37),#275,.F.);
#284=ADVANCED_FACE('',(#38),#276,.F.);
#285=ADVANCED_FACE('',(#39),#277,.T.);
#286=ADVANCED_FACE('',(#40),#21,.T.);
#287=ADVANCED_FACE('',(#41),#15,.T.);
#288=ADVANCED_FACE('',(#42),#278,.T.);
#289=ADVANCED_FACE('',(#43),#16,.T.);
#290=ADVANCED_FACE('',(#44),#279,.T.);
#291=ADVANCED_FACE('',(#45),#17,.T.);
#292=ADVANCED_FACE('',(#46),#280,.T.);
#293=ADVANCED_FACE('',(#47),#22,.T.);
#294=ADVANCED_FACE('',(#48),#18,.T.);
#295=ADVANCED_FACE('',(#49),#281,.T.);
#296=ADVANCED_FACE('',(#50),#19,.T.);
#297=ADVANCED_FACE('',(#51),#282,.T.);
#298=ADVANCED_FACE('',(#52),#20,.F.);
#299=CLOSED_SHELL('',(#283,#284,#285,#286,#287,#288,#289,#290,#291,#292,
#293,#294,#295,#296,#297,#298));
#300=DERIVED_UNIT_ELEMENT(#302,1.);
#301=DERIVED_UNIT_ELEMENT(#563,-3.);
#302=(
MASS_UNIT()
NAMED_UNIT(*)
SI_UNIT($,.GRAM.)
);
#303=DERIVED_UNIT((#300,#301));
#304=MEASURE_REPRESENTATION_ITEM('density measure',
POSITIVE_RATIO_MEASURE(7.85),#303);
#305=PROPERTY_DEFINITION_REPRESENTATION(#310,#307);
#306=PROPERTY_DEFINITION_REPRESENTATION(#311,#308);
#307=REPRESENTATION('material name',(#309),#560);
#308=REPRESENTATION('density',(#304),#560);
#309=DESCRIPTIVE_REPRESENTATION_ITEM('Stahl','Stahl');
#310=PROPERTY_DEFINITION('material property','material name',#570);
#311=PROPERTY_DEFINITION('material property','density of part',#570);
#312=DATE_TIME_ROLE('creation_date');
#313=APPLIED_DATE_AND_TIME_ASSIGNMENT(#314,#312,(#570));
#314=DATE_AND_TIME(#315,#316);
#315=CALENDAR_DATE(2009,12,8);
#316=LOCAL_TIME(0,0,0.,#317);
#317=COORDINATED_UNIVERSAL_TIME_OFFSET(0,0,.BEHIND.);
#318=AXIS2_PLACEMENT_3D('placement',#435,#349,#350);
#319=AXIS2_PLACEMENT_3D('',#436,#351,#352);
#320=AXIS2_PLACEMENT_3D('',#483,#365,#366);
#321=AXIS2_PLACEMENT_3D('',#530,#379,#380);
#322=AXIS2_PLACEMENT_3D('',#531,#381,#382);
#323=AXIS2_PLACEMENT_3D('',#532,#383,#384);
#324=AXIS2_PLACEMENT_3D('',#533,#385,#386);
#325=AXIS2_PLACEMENT_3D('',#534,#387,#388);
#326=AXIS2_PLACEMENT_3D('',#535,#389,#390);
#327=AXIS2_PLACEMENT_3D('',#536,#391,#392);
#328=AXIS2_PLACEMENT_3D('',#537,#393,#394);
#329=AXIS2_PLACEMENT_3D('',#538,#395,#396);
#330=AXIS2_PLACEMENT_3D('',#539,#397,#398);
#331=AXIS2_PLACEMENT_3D('',#540,#399,#400);
#332=AXIS2_PLACEMENT_3D('',#541,#401,#402);
#333=AXIS2_PLACEMENT_3D('',#542,#403,#404);
#334=AXIS2_PLACEMENT_3D('',#543,#405,#406);
#335=AXIS2_PLACEMENT_3D('',#544,#407,#408);
#336=AXIS2_PLACEMENT_3D('',#545,#409,#410);
#337=AXIS2_PLACEMENT_3D('',#546,#411,#412);
#338=AXIS2_PLACEMENT_3D('',#547,#413,#414);
#339=AXIS2_PLACEMENT_3D('',#548,#415,#416);
#340=AXIS2_PLACEMENT_3D('',#549,#417,#418);
#341=AXIS2_PLACEMENT_3D('',#550,#419,#420);
#342=AXIS2_PLACEMENT_3D('',#551,#421,#422);
#343=AXIS2_PLACEMENT_3D('',#552,#423,#424);
#344=AXIS2_PLACEMENT_3D('',#553,#425,#426);
#345=AXIS2_PLACEMENT_3D('',#554,#427,#428);
#346=AXIS2_PLACEMENT_3D('',#555,#429,#430);
#347=AXIS2_PLACEMENT_3D('',#556,#431,#432);
#348=AXIS2_PLACEMENT_3D('',#557,#433,#434);
#349=DIRECTION('axis',(0.,0.,1.));
#350=DIRECTION('refdir',(1.,0.,0.));
#351=DIRECTION('center_axis',(0.,-0.258819045102521,-0.965925826289068));
#352=DIRECTION('ref_axis',(-1.,0.,0.));
#353=DIRECTION('',(0.,0.965925826289068,-0.258819045102521));
#354=DIRECTION('',(1.,0.,0.));
#355=DIRECTION('',(0.,-0.965925826289068,0.258819045102521));
#356=DIRECTION('',(1.,0.,0.));
#357=DIRECTION('',(0.,0.965925826289068,-0.258819045102521));
#358=DIRECTION('',(-1.,0.,0.));
#359=DIRECTION('',(0.,-0.965925826289068,0.258819045102521));
#360=DIRECTION('',(1.,0.,0.));
#361=DIRECTION('',(0.,0.965925826289068,-0.258819045102521));
#362=DIRECTION('',(1.,0.,0.));
#363=DIRECTION('',(0.,-0.965925826289068,0.258819045102521));
#364=DIRECTION('',(1.,0.,0.));
#365=DIRECTION('center_axis',(0.,0.25881904510252,0.965925826289068));
#366=DIRECTION('ref_axis',(1.,0.,0.));
#367=DIRECTION('',(-1.,0.,0.));
#368=DIRECTION('',(0.,0.965925826289068,-0.25881904510252));
#369=DIRECTION('',(-1.,0.,0.));
#370=DIRECTION('',(0.,-0.965925826289068,0.25881904510252));
#371=DIRECTION('',(-1.,0.,0.));
#372=DIRECTION('',(0.,0.965925826289068,-0.25881904510252));
#373=DIRECTION('',(-1.,0.,0.));
#374=DIRECTION('',(0.,-0.965925826289068,0.25881904510252));
#375=DIRECTION('',(-1.,0.,0.));
#376=DIRECTION('',(0.,0.965925826289068,-0.25881904510252));
#377=DIRECTION('',(1.,0.,0.));
#378=DIRECTION('',(0.,-0.965925826289068,0.25881904510252));
#379=DIRECTION('center_axis',(-1.,0.,0.));
#380=DIRECTION('ref_axis',(0.,0.,1.));
#381=DIRECTION('center_axis',(1.,0.,0.));
#382=DIRECTION('ref_axis',(0.,-1.,1.22460635382238E-16));
#383=DIRECTION('center_axis',(1.,0.,0.));
#384=DIRECTION('ref_axis',(0.,1.,0.));
#385=DIRECTION('center_axis',(1.,0.,0.));
#386=DIRECTION('ref_axis',(0.,-0.965925826289068,0.25881904510252));
#387=DIRECTION('center_axis',(-1.,0.,0.));
#388=DIRECTION('ref_axis',(0.,-1.,1.22460635382238E-16));
#389=DIRECTION('center_axis',(1.,0.,0.));
#390=DIRECTION('ref_axis',(0.,-1.,1.22460635382238E-16));
#391=DIRECTION('center_axis',(1.,0.,0.));
#392=DIRECTION('ref_axis',(0.,-0.965925826289068,0.25881904510252));
#393=DIRECTION('center_axis',(1.,0.,0.));
#394=DIRECTION('ref_axis',(0.,1.,0.));
#395=DIRECTION('center_axis',(-1.,0.,0.));
#396=DIRECTION('ref_axis',(0.,0.,1.));
#397=DIRECTION('center_axis',(1.,0.,0.));
#398=DIRECTION('ref_axis',(0.,1.,0.));
#399=DIRECTION('center_axis',(1.,0.,0.));
#400=DIRECTION('ref_axis',(0.,-0.965925826289068,0.25881904510252));
#401=DIRECTION('center_axis',(1.,0.,0.));
#402=DIRECTION('ref_axis',(0.,1.,0.));
#403=DIRECTION('center_axis',(1.,0.,0.));
#404=DIRECTION('ref_axis',(0.,0.,-1.));
#405=DIRECTION('center_axis',(1.,0.,0.));
#406=DIRECTION('ref_axis',(0.,1.,0.));
#407=DIRECTION('center_axis',(1.,0.,0.));
#408=DIRECTION('ref_axis',(0.,-0.965925826289068,0.25881904510252));
#409=DIRECTION('center_axis',(1.,0.,0.));
#410=DIRECTION('ref_axis',(0.,1.,0.));
#411=DIRECTION('center_axis',(1.,0.,0.));
#412=DIRECTION('ref_axis',(0.,0.,-1.));
#413=DIRECTION('center_axis',(1.,0.,0.));
#414=DIRECTION('ref_axis',(0.,1.,0.));
#415=DIRECTION('center_axis',(1.,0.,0.));
#416=DIRECTION('ref_axis',(0.,-0.965925826289068,0.25881904510252));
#417=DIRECTION('center_axis',(-1.,0.,0.));
#418=DIRECTION('ref_axis',(0.,-1.,1.22460635382238E-16));
#419=DIRECTION('center_axis',(1.,0.,0.));
#420=DIRECTION('ref_axis',(0.,-0.965925826289068,0.25881904510252));
#421=DIRECTION('center_axis',(1.,0.,0.));
#422=DIRECTION('ref_axis',(0.,1.,0.));
#423=DIRECTION('center_axis',(1.,0.,0.));
#424=DIRECTION('ref_axis',(0.,0.,-1.));
#425=DIRECTION('center_axis',(1.,0.,0.));
#426=DIRECTION('ref_axis',(0.,1.,0.));
#427=DIRECTION('center_axis',(1.,0.,0.));
#428=DIRECTION('ref_axis',(0.,-0.965925826289068,0.25881904510252));
#429=DIRECTION('center_axis',(1.,0.,0.));
#430=DIRECTION('ref_axis',(0.,1.,0.));
#431=DIRECTION('center_axis',(-1.,0.,0.));
#432=DIRECTION('ref_axis',(0.,0.,1.));
#433=DIRECTION('center_axis',(1.,0.,0.));
#434=DIRECTION('ref_axis',(0.,-0.965925826289068,0.25881904510252));
#435=CARTESIAN_POINT('',(0.,0.,0.));
#436=CARTESIAN_POINT('Origin',(16.,5.55598463908787,-2.26517873251088));
#437=CARTESIAN_POINT('',(-10.15,9.92220079325542,-3.43510282499979));
#438=CARTESIAN_POINT('',(-10.15,10.406344068723,-3.56482862468229));
#439=CARTESIAN_POINT('',(-10.15,7.69587845030117,-2.83856155111384));
#440=CARTESIAN_POINT('',(-11.45,9.92220079325542,-3.4351028249998));
#441=CARTESIAN_POINT('',(-10.8,9.92220079325542,-3.43510282499979));
#442=CARTESIAN_POINT('',(-11.45,10.406344068723,-3.56482862468229));
#443=CARTESIAN_POINT('',(-11.45,7.69587845030117,-2.83856155111384));
#444=CARTESIAN_POINT('',(-15.75,10.406344068723,-3.56482862468229));
#445=CARTESIAN_POINT('',(-13.725,10.406344068723,-3.56482862468229));
#446=CARTESIAN_POINT('',(-16.,10.1642862064807,-3.49996941597287));
#447=CARTESIAN_POINT('Ctrl Pts',(-16.,10.1642862064807,-3.49996941597287));
#448=CARTESIAN_POINT('Ctrl Pts',(-16.,10.1941835596641,-3.50798038761418));
#449=CARTESIAN_POINT('Ctrl Pts',(-15.9927665491432,10.2293734536661,-3.51740949129377));
#450=CARTESIAN_POINT('Ctrl Pts',(-15.9691201013907,10.2845924422481,-3.53220537469117));
#451=CARTESIAN_POINT('Ctrl Pts',(-15.9485367304153,10.3144011895875,-3.54019260446815));
#452=CARTESIAN_POINT('Ctrl Pts',(-15.9048833237029,10.3566272688766,-3.55150704831319));
#453=CARTESIAN_POINT('Ctrl Pts',(-15.8741022203163,10.3765286498347,-3.55683960726917));
#454=CARTESIAN_POINT('Ctrl Pts',(-15.8171129956708,10.3993609375385,-3.56295750032076));
#455=CARTESIAN_POINT('Ctrl Pts',(-15.7808301052723,10.406344068723,-3.56482862468229));
#456=CARTESIAN_POINT('Ctrl Pts',(-15.75,10.406344068723,-3.56482862468229));
#457=CARTESIAN_POINT('',(-16.,5.55598463908787,-2.26517873251088));
#458=CARTESIAN_POINT('',(-16.,6.64623916067242,-2.55731155111384));
#459=CARTESIAN_POINT('',(16.,5.55598463908787,-2.26517873251088));
#460=CARTESIAN_POINT('',(0.,5.55598463908787,-2.26517873251088));
#461=CARTESIAN_POINT('',(16.,10.1642862064807,-3.49996941597287));
#462=CARTESIAN_POINT('',(16.,6.64623916067242,-2.55731155111384));
#463=CARTESIAN_POINT('',(15.75,10.406344068723,-3.56482862468229));
#464=CARTESIAN_POINT('Ctrl Pts',(15.75,10.406344068723,-3.56482862468229));
#465=CARTESIAN_POINT('Ctrl Pts',(15.7808301052723,10.406344068723,-3.56482862468229));
#466=CARTESIAN_POINT('Ctrl Pts',(15.8171129956708,10.3993609375385,-3.56295750032076));
#467=CARTESIAN_POINT('Ctrl Pts',(15.8741022203163,10.3765286498347,-3.55683960726917));
#468=CARTESIAN_POINT('Ctrl Pts',(15.9048833237029,10.3566272688766,-3.55150704831319));
#469=CARTESIAN_POINT('Ctrl Pts',(15.9485367304153,10.3144011895875,-3.54019260446815));
#470=CARTESIAN_POINT('Ctrl Pts',(15.9691201013907,10.2845924422481,-3.53220537469117));
#471=CARTESIAN_POINT('Ctrl Pts',(15.9927665491432,10.2293734536661,-3.51740949129377));
#472=CARTESIAN_POINT('Ctrl Pts',(16.,10.1941835596641,-3.50798038761418));
#473=CARTESIAN_POINT('Ctrl Pts',(16.,10.1642862064807,-3.49996941597287));
#474=CARTESIAN_POINT('',(11.45,10.406344068723,-3.56482862468229));
#475=CARTESIAN_POINT('',(13.725,10.406344068723,-3.56482862468229));
#476=CARTESIAN_POINT('',(11.45,9.92220079325542,-3.4351028249998));
#477=CARTESIAN_POINT('',(11.45,7.69587845030117,-2.83856155111384));
#478=CARTESIAN_POINT('',(10.15,9.92220079325542,-3.43510282499979));
#479=CARTESIAN_POINT('',(10.8,9.92220079325542,-3.43510282499979));
#480=CARTESIAN_POINT('',(10.15,10.406344068723,-3.56482862468229));
#481=CARTESIAN_POINT('',(10.15,7.69587845030117,-2.83856155111384));
#482=CARTESIAN_POINT('',(0.,10.406344068723,-3.56482862468229));
#483=CARTESIAN_POINT('Origin',(16.,10.7945726363768,-2.11593988524868));
#484=CARTESIAN_POINT('',(-15.75,10.7945726363768,-2.11593988524868));
#485=CARTESIAN_POINT('',(-16.,10.5525147741345,-2.05108067653927));
#486=CARTESIAN_POINT('Ctrl Pts',(-15.75,10.7945726363768,-2.11593988524868));
#487=CARTESIAN_POINT('Ctrl Pts',(-15.7808301052723,10.7945726363768,-2.11593988524868));
#488=CARTESIAN_POINT('Ctrl Pts',(-15.8171129956708,10.7875895051923,-2.11406876088716));
#489=CARTESIAN_POINT('Ctrl Pts',(-15.8741022203163,10.7647572174885,-2.10795086783557));
#490=CARTESIAN_POINT('Ctrl Pts',(-15.9048833237029,10.7448558365304,-2.10261830887959));
#491=CARTESIAN_POINT('Ctrl Pts',(-15.9485367304153,10.7026297572413,-2.09130386503454));
#492=CARTESIAN_POINT('Ctrl Pts',(-15.9691201013907,10.6728210099019,-2.08331663525757));
#493=CARTESIAN_POINT('Ctrl Pts',(-15.9927665491432,10.6176020213199,-2.06852075186016));
#494=CARTESIAN_POINT('Ctrl Pts',(-16.,10.5824121273179,-2.05909164818058));
#495=CARTESIAN_POINT('Ctrl Pts',(-16.,10.5525147741345,-2.05108067653927));
#496=CARTESIAN_POINT('',(-11.45,10.7945726363768,-2.11593988524867));
#497=CARTESIAN_POINT('',(16.,10.7945726363768,-2.11593988524866));
#498=CARTESIAN_POINT('',(-11.45,10.3104293609092,-1.98621408556619));
#499=CARTESIAN_POINT('',(-11.45,10.5092867327725,-2.03949775776594));
#500=CARTESIAN_POINT('',(-10.15,10.3104293609092,-1.98621408556619));
#501=CARTESIAN_POINT('',(-10.8,10.3104293609092,-1.98621408556619));
#502=CARTESIAN_POINT('',(-10.15,10.7945726363768,-2.11593988524868));
#503=CARTESIAN_POINT('',(-10.15,10.5092867327725,-2.03949775776594));
#504=CARTESIAN_POINT('',(10.15,10.7945726363768,-2.11593988524867));
#505=CARTESIAN_POINT('',(16.,10.7945726363768,-2.11593988524866));
#506=CARTESIAN_POINT('',(10.15,10.3104293609092,-1.98621408556619));
#507=CARTESIAN_POINT('',(10.15,10.5092867327725,-2.03949775776594));
#508=CARTESIAN_POINT('',(11.45,10.3104293609092,-1.98621408556619));
#509=CARTESIAN_POINT('',(10.8,10.3104293609092,-1.98621408556619));
#510=CARTESIAN_POINT('',(11.45,10.7945726363768,-2.11593988524867));
#511=CARTESIAN_POINT('',(11.45,10.5092867327725,-2.03949775776594));
#512=CARTESIAN_POINT('',(15.75,10.7945726363768,-2.11593988524868));
#513=CARTESIAN_POINT('',(16.,10.7945726363768,-2.11593988524866));
#514=CARTESIAN_POINT('',(16.,10.5525147741345,-2.05108067653927));
#515=CARTESIAN_POINT('Ctrl Pts',(16.,10.5525147741345,-2.05108067653927));
#516=CARTESIAN_POINT('Ctrl Pts',(16.,10.5824121273179,-2.05909164818058));
#517=CARTESIAN_POINT('Ctrl Pts',(15.9927665491432,10.6176020213199,-2.06852075186016));
#518=CARTESIAN_POINT('Ctrl Pts',(15.9691201013907,10.6728210099019,-2.08331663525757));
#519=CARTESIAN_POINT('Ctrl Pts',(15.9485367304153,10.7026297572413,-2.09130386503454));
#520=CARTESIAN_POINT('Ctrl Pts',(15.9048833237029,10.7448558365304,-2.10261830887959));
#521=CARTESIAN_POINT('Ctrl Pts',(15.8741022203163,10.7647572174885,-2.10795086783557));
#522=CARTESIAN_POINT('Ctrl Pts',(15.8171129956708,10.7875895051923,-2.11406876088716));
#523=CARTESIAN_POINT('Ctrl Pts',(15.7808301052723,10.7945726363768,-2.11593988524868));
#524=CARTESIAN_POINT('Ctrl Pts',(15.75,10.7945726363768,-2.11593988524868));
#525=CARTESIAN_POINT('',(16.,5.94421320674165,-0.816289993077275));
#526=CARTESIAN_POINT('',(16.,9.45964744314375,-1.75824775776594));
#527=CARTESIAN_POINT('',(-16.,5.94421320674165,-0.816289993077275));
#528=CARTESIAN_POINT('',(0.,5.94421320674165,-0.816289993077275));
#529=CARTESIAN_POINT('',(-16.,9.45964744314375,-1.75824775776594));
#530=CARTESIAN_POINT('Origin',(-16.,8.5,0.));
#531=CARTESIAN_POINT('Origin',(-16.,0.,0.));
#532=CARTESIAN_POINT('Origin',(-16.,0.,0.));
#533=CARTESIAN_POINT('Origin',(15.75,0.,0.));
#534=CARTESIAN_POINT('Origin',(16.,0.,0.));
#535=CARTESIAN_POINT('Origin',(15.75,0.,0.));
#536=CARTESIAN_POINT('Origin',(13.725,0.,0.));
#537=CARTESIAN_POINT('Origin',(11.45,0.,0.));
#538=CARTESIAN_POINT('Origin',(11.45,10.75,0.));
#539=CARTESIAN_POINT('Origin',(11.45,0.,0.));
#540=CARTESIAN_POINT('Origin',(10.8,0.,0.));
#541=CARTESIAN_POINT('Origin',(10.15,0.,0.));
#542=CARTESIAN_POINT('Origin',(10.15,10.75,0.));
#543=CARTESIAN_POINT('Origin',(10.15,0.,0.));
#544=CARTESIAN_POINT('Origin',(0.,0.,0.));
#545=CARTESIAN_POINT('Origin',(-10.15,0.,0.));
#546=CARTESIAN_POINT('Origin',(16.,8.5,0.));
#547=CARTESIAN_POINT('Origin',(16.,0.,0.));
#548=CARTESIAN_POINT('Origin',(-15.75,0.,0.));
#549=CARTESIAN_POINT('Origin',(-15.75,0.,0.));
#550=CARTESIAN_POINT('Origin',(-13.725,0.,0.));
#551=CARTESIAN_POINT('Origin',(-11.45,0.,0.));
#552=CARTESIAN_POINT('Origin',(-11.45,10.75,0.));
#553=CARTESIAN_POINT('Origin',(-11.45,0.,0.));
#554=CARTESIAN_POINT('Origin',(-10.8,0.,0.));
#555=CARTESIAN_POINT('Origin',(-10.15,0.,0.));
#556=CARTESIAN_POINT('Origin',(-10.15,10.75,0.));
#557=CARTESIAN_POINT('Origin',(0.,0.,0.));
#558=UNCERTAINTY_MEASURE_WITH_UNIT(LENGTH_MEASURE(0.01),#562,
'DISTANCE_ACCURACY_VALUE',
'Maximum model space distance between geometric entities at asserted c
onnectivities');
#559=UNCERTAINTY_MEASURE_WITH_UNIT(LENGTH_MEASURE(0.01),#562,
'DISTANCE_ACCURACY_VALUE',
'Maximum model space distance between geometric entities at asserted c
onnectivities');
#560=(
GEOMETRIC_REPRESENTATION_CONTEXT(3)
GLOBAL_UNCERTAINTY_ASSIGNED_CONTEXT((#558))
GLOBAL_UNIT_ASSIGNED_CONTEXT((#562,#564,#565))
REPRESENTATION_CONTEXT('','3D')
);
#561=(
GEOMETRIC_REPRESENTATION_CONTEXT(3)
GLOBAL_UNCERTAINTY_ASSIGNED_CONTEXT((#559))
GLOBAL_UNIT_ASSIGNED_CONTEXT((#562,#564,#565))
REPRESENTATION_CONTEXT('','3D')
);
#562=(
LENGTH_UNIT()
NAMED_UNIT(*)
SI_UNIT(.MILLI.,.METRE.)
);
#563=(
LENGTH_UNIT()
NAMED_UNIT(*)
SI_UNIT(.CENTI.,.METRE.)
);
#564=(
NAMED_UNIT(*)
PLANE_ANGLE_UNIT()
SI_UNIT($,.RADIAN.)
);
#565=(
NAMED_UNIT(*)
SI_UNIT($,.STERADIAN.)
SOLID_ANGLE_UNIT()
);
#566=SHAPE_DEFINITION_REPRESENTATION(#567,#568);
#567=PRODUCT_DEFINITION_SHAPE('',$,#570);
#568=SHAPE_REPRESENTATION('',(#318),#560);
#569=PRODUCT_DEFINITION_CONTEXT('part definition',#574,'design');
#570=PRODUCT_DEFINITION('leer','00016353',#571,#569);
#571=PRODUCT_DEFINITION_FORMATION('',$,#576);
#572=PRODUCT_RELATED_PRODUCT_CATEGORY('00016353','00016353',(#576));
#573=APPLICATION_PROTOCOL_DEFINITION('international standard',
'automotive_design',2009,#574);
#574=APPLICATION_CONTEXT(
'Core Data for Automotive Mechanical Design Process');
#575=PRODUCT_CONTEXT('part definition',#574,'mechanical');
#576=PRODUCT('leer','00016353',
'Linearlager mit Kunstsfoffk\X\E4fig geschlitzt beidseitig abgedichtet',
(#575));
#577=PRESENTATION_STYLE_ASSIGNMENT((#578));
#578=SURFACE_STYLE_USAGE(.BOTH.,#581);
#579=SURFACE_STYLE_RENDERING_WITH_PROPERTIES($,#585,(#580));
#580=SURFACE_STYLE_TRANSPARENT(0.);
#581=SURFACE_SIDE_STYLE('',(#582,#579));
#582=SURFACE_STYLE_FILL_AREA(#583);
#583=FILL_AREA_STYLE('',(#584));
#584=FILL_AREA_STYLE_COLOUR('',#585);
#585=COLOUR_RGB('',0.87843137254902,0.874509803921569,0.858823529411765);
ENDSEC;
END-ISO-10303-21;
