ISO-10303-21;
HEADER;
/* Generated by software containing ST-Developer
 * from STEP Tools, Inc. (www.steptools.com) 
 */

FILE_DESCRIPTION(
/* description */ (
'Miniatur Linearlager Geschlossen beidseitig abgedichtet'),
/* implementation_level */ '2;1');

FILE_NAME(
/* name */ '\\\\fileserver\\Daten2\\STEP Daten fuer PIM\\101230-0.step',

/* time_stamp */ '2021-09-02T13:14:42+02:00',
/* author */ ('Praktikum'),
/* organization */ (''),
/* preprocessor_version */ 'ST-DEVELOPER v18.1',
/* originating_system */ 'Autodesk Inventor 2021',
/* authorisation */ '');

FILE_SCHEMA (('AUTOMOTIVE_DESIGN { 1 0 10303 214 3 1 1 }'));
ENDSEC;

DATA;
#10=MECHANICAL_DESIGN_GEOMETRIC_PRESENTATION_REPRESENTATION('',(#13),#383);
#11=SHAPE_REPRESENTATION_RELATIONSHIP('SRR','None',#390,#12);
#12=ADVANCED_BREP_SHAPE_REPRESENTATION('',(#14),#382);
#13=STYLED_ITEM('',(#399),#14);
#14=MANIFOLD_SOLID_BREP('Volumenk\X\F6rper1',#201);
#15=FACE_BOUND('',#62,.T.);
#16=FACE_BOUND('',#66,.T.);
#17=FACE_BOUND('',#68,.T.);
#18=FACE_BOUND('',#71,.T.);
#19=FACE_BOUND('',#74,.T.);
#20=FACE_BOUND('',#77,.T.);
#21=PLANE('',#228);
#22=PLANE('',#237);
#23=PLANE('',#239);
#24=PLANE('',#243);
#25=PLANE('',#247);
#26=PLANE('',#251);
#27=LINE('',#336,#33);
#28=LINE('',#352,#34);
#29=LINE('',#362,#35);
#30=LINE('',#369,#36);
#31=LINE('',#376,#37);
#32=LINE('',#379,#38);
#33=VECTOR('',#267,5.);
#34=VECTOR('',#288,5.);
#35=VECTOR('',#301,4.8);
#36=VECTOR('',#310,5.);
#37=VECTOR('',#319,4.8);
#38=VECTOR('',#324,2.5);
#39=CYLINDRICAL_SURFACE('',#226,5.);
#40=CYLINDRICAL_SURFACE('',#235,5.);
#41=CYLINDRICAL_SURFACE('',#241,4.8);
#42=CYLINDRICAL_SURFACE('',#245,5.);
#43=CYLINDRICAL_SURFACE('',#249,4.8);
#44=CYLINDRICAL_SURFACE('',#252,2.5);
#45=FACE_OUTER_BOUND('',#59,.T.);
#46=FACE_OUTER_BOUND('',#60,.T.);
#47=FACE_OUTER_BOUND('',#61,.T.);
#48=FACE_OUTER_BOUND('',#63,.T.);
#49=FACE_OUTER_BOUND('',#64,.T.);
#50=FACE_OUTER_BOUND('',#65,.T.);
#51=FACE_OUTER_BOUND('',#67,.T.);
#52=FACE_OUTER_BOUND('',#69,.T.);
#53=FACE_OUTER_BOUND('',#70,.T.);
#54=FACE_OUTER_BOUND('',#72,.T.);
#55=FACE_OUTER_BOUND('',#73,.T.);
#56=FACE_OUTER_BOUND('',#75,.T.);
#57=FACE_OUTER_BOUND('',#76,.T.);
#58=FACE_OUTER_BOUND('',#78,.T.);
#59=EDGE_LOOP('',(#137,#138,#139,#140,#141));
#60=EDGE_LOOP('',(#142,#143,#144,#145,#146));
#61=EDGE_LOOP('',(#147));
#62=EDGE_LOOP('',(#148));
#63=EDGE_LOOP('',(#149,#150,#151,#152,#153));
#64=EDGE_LOOP('',(#154,#155,#156,#157,#158));
#65=EDGE_LOOP('',(#159));
#66=EDGE_LOOP('',(#160));
#67=EDGE_LOOP('',(#161));
#68=EDGE_LOOP('',(#162));
#69=EDGE_LOOP('',(#163,#164,#165,#166));
#70=EDGE_LOOP('',(#167));
#71=EDGE_LOOP('',(#168));
#72=EDGE_LOOP('',(#169,#170,#171,#172));
#73=EDGE_LOOP('',(#173));
#74=EDGE_LOOP('',(#174));
#75=EDGE_LOOP('',(#175,#176,#177,#178));
#76=EDGE_LOOP('',(#179));
#77=EDGE_LOOP('',(#180));
#78=EDGE_LOOP('',(#181,#182,#183,#184));
#79=CIRCLE('',#222,4.75);
#80=CIRCLE('',#223,0.25);
#81=CIRCLE('',#224,5.);
#82=CIRCLE('',#225,5.);
#83=CIRCLE('',#227,5.);
#84=CIRCLE('',#229,2.5);
#85=CIRCLE('',#231,5.);
#86=CIRCLE('',#232,5.);
#87=CIRCLE('',#233,0.25);
#88=CIRCLE('',#234,4.75);
#89=CIRCLE('',#236,5.);
#90=CIRCLE('',#238,2.5);
#91=CIRCLE('',#240,4.8);
#92=CIRCLE('',#242,4.8);
#93=CIRCLE('',#244,5.);
#94=CIRCLE('',#246,5.);
#95=CIRCLE('',#248,4.8);
#96=CIRCLE('',#250,4.8);
#97=VERTEX_POINT('',#327);
#98=VERTEX_POINT('',#329);
#99=VERTEX_POINT('',#331);
#100=VERTEX_POINT('',#335);
#101=VERTEX_POINT('',#339);
#102=VERTEX_POINT('',#342);
#103=VERTEX_POINT('',#343);
#104=VERTEX_POINT('',#346);
#105=VERTEX_POINT('',#350);
#106=VERTEX_POINT('',#354);
#107=VERTEX_POINT('',#357);
#108=VERTEX_POINT('',#360);
#109=VERTEX_POINT('',#364);
#110=VERTEX_POINT('',#367);
#111=VERTEX_POINT('',#371);
#112=VERTEX_POINT('',#374);
#113=EDGE_CURVE('',#97,#97,#79,.T.);
#114=EDGE_CURVE('',#97,#98,#80,.T.);
#115=EDGE_CURVE('',#98,#99,#81,.T.);
#116=EDGE_CURVE('',#99,#98,#82,.T.);
#117=EDGE_CURVE('',#99,#100,#27,.T.);
#118=EDGE_CURVE('',#100,#100,#83,.T.);
#119=EDGE_CURVE('',#101,#101,#84,.T.);
#120=EDGE_CURVE('',#102,#103,#85,.T.);
#121=EDGE_CURVE('',#103,#102,#86,.T.);
#122=EDGE_CURVE('',#102,#104,#87,.T.);
#123=EDGE_CURVE('',#104,#104,#88,.T.);
#124=EDGE_CURVE('',#105,#105,#89,.T.);
#125=EDGE_CURVE('',#105,#103,#28,.T.);
#126=EDGE_CURVE('',#106,#106,#90,.T.);
#127=EDGE_CURVE('',#107,#107,#91,.T.);
#128=EDGE_CURVE('',#108,#108,#92,.T.);
#129=EDGE_CURVE('',#108,#107,#29,.T.);
#130=EDGE_CURVE('',#109,#109,#93,.T.);
#131=EDGE_CURVE('',#110,#110,#94,.T.);
#132=EDGE_CURVE('',#110,#109,#30,.T.);
#133=EDGE_CURVE('',#111,#111,#95,.T.);
#134=EDGE_CURVE('',#112,#112,#96,.T.);
#135=EDGE_CURVE('',#112,#111,#31,.T.);
#136=EDGE_CURVE('',#101,#106,#32,.T.);
#137=ORIENTED_EDGE('',*,*,#113,.T.);
#138=ORIENTED_EDGE('',*,*,#114,.T.);
#139=ORIENTED_EDGE('',*,*,#115,.T.);
#140=ORIENTED_EDGE('',*,*,#116,.T.);
#141=ORIENTED_EDGE('',*,*,#114,.F.);
#142=ORIENTED_EDGE('',*,*,#116,.F.);
#143=ORIENTED_EDGE('',*,*,#117,.T.);
#144=ORIENTED_EDGE('',*,*,#118,.T.);
#145=ORIENTED_EDGE('',*,*,#117,.F.);
#146=ORIENTED_EDGE('',*,*,#115,.F.);
#147=ORIENTED_EDGE('',*,*,#113,.F.);
#148=ORIENTED_EDGE('',*,*,#119,.F.);
#149=ORIENTED_EDGE('',*,*,#120,.T.);
#150=ORIENTED_EDGE('',*,*,#121,.T.);
#151=ORIENTED_EDGE('',*,*,#122,.T.);
#152=ORIENTED_EDGE('',*,*,#123,.T.);
#153=ORIENTED_EDGE('',*,*,#122,.F.);
#154=ORIENTED_EDGE('',*,*,#124,.F.);
#155=ORIENTED_EDGE('',*,*,#125,.T.);
#156=ORIENTED_EDGE('',*,*,#120,.F.);
#157=ORIENTED_EDGE('',*,*,#121,.F.);
#158=ORIENTED_EDGE('',*,*,#125,.F.);
#159=ORIENTED_EDGE('',*,*,#123,.F.);
#160=ORIENTED_EDGE('',*,*,#126,.T.);
#161=ORIENTED_EDGE('',*,*,#124,.T.);
#162=ORIENTED_EDGE('',*,*,#127,.F.);
#163=ORIENTED_EDGE('',*,*,#128,.F.);
#164=ORIENTED_EDGE('',*,*,#129,.T.);
#165=ORIENTED_EDGE('',*,*,#127,.T.);
#166=ORIENTED_EDGE('',*,*,#129,.F.);
#167=ORIENTED_EDGE('',*,*,#130,.F.);
#168=ORIENTED_EDGE('',*,*,#128,.T.);
#169=ORIENTED_EDGE('',*,*,#131,.F.);
#170=ORIENTED_EDGE('',*,*,#132,.T.);
#171=ORIENTED_EDGE('',*,*,#130,.T.);
#172=ORIENTED_EDGE('',*,*,#132,.F.);
#173=ORIENTED_EDGE('',*,*,#131,.T.);
#174=ORIENTED_EDGE('',*,*,#133,.F.);
#175=ORIENTED_EDGE('',*,*,#134,.F.);
#176=ORIENTED_EDGE('',*,*,#135,.T.);
#177=ORIENTED_EDGE('',*,*,#133,.T.);
#178=ORIENTED_EDGE('',*,*,#135,.F.);
#179=ORIENTED_EDGE('',*,*,#118,.F.);
#180=ORIENTED_EDGE('',*,*,#134,.T.);
#181=ORIENTED_EDGE('',*,*,#119,.T.);
#182=ORIENTED_EDGE('',*,*,#136,.T.);
#183=ORIENTED_EDGE('',*,*,#126,.F.);
#184=ORIENTED_EDGE('',*,*,#136,.F.);
#185=TOROIDAL_SURFACE('',#221,4.75,0.25);
#186=TOROIDAL_SURFACE('',#230,4.75,0.25);
#187=ADVANCED_FACE('',(#45),#185,.T.);
#188=ADVANCED_FACE('',(#46),#39,.T.);
#189=ADVANCED_FACE('',(#47,#15),#21,.T.);
#190=ADVANCED_FACE('',(#48),#186,.T.);
#191=ADVANCED_FACE('',(#49),#40,.T.);
#192=ADVANCED_FACE('',(#50,#16),#22,.T.);
#193=ADVANCED_FACE('',(#51,#17),#23,.T.);
#194=ADVANCED_FACE('',(#52),#41,.T.);
#195=ADVANCED_FACE('',(#53,#18),#24,.T.);
#196=ADVANCED_FACE('',(#54),#42,.T.);
#197=ADVANCED_FACE('',(#55,#19),#25,.T.);
#198=ADVANCED_FACE('',(#56),#43,.T.);
#199=ADVANCED_FACE('',(#57,#20),#26,.T.);
#200=ADVANCED_FACE('',(#58),#44,.F.);
#201=CLOSED_SHELL('',(#187,#188,#189,#190,#191,#192,#193,#194,#195,#196,
#197,#198,#199,#200));
#202=DERIVED_UNIT_ELEMENT(#204,1.);
#203=DERIVED_UNIT_ELEMENT(#385,-3.);
#204=(
MASS_UNIT()
NAMED_UNIT(*)
SI_UNIT($,.GRAM.)
);
#205=DERIVED_UNIT((#202,#203));
#206=MEASURE_REPRESENTATION_ITEM('density measure',
POSITIVE_RATIO_MEASURE(7.85),#205);
#207=PROPERTY_DEFINITION_REPRESENTATION(#212,#209);
#208=PROPERTY_DEFINITION_REPRESENTATION(#213,#210);
#209=REPRESENTATION('material name',(#211),#382);
#210=REPRESENTATION('density',(#206),#382);
#211=DESCRIPTIVE_REPRESENTATION_ITEM('Stahl','Stahl');
#212=PROPERTY_DEFINITION('material property','material name',#392);
#213=PROPERTY_DEFINITION('material property','density of part',#392);
#214=DATE_TIME_ROLE('creation_date');
#215=APPLIED_DATE_AND_TIME_ASSIGNMENT(#216,#214,(#392));
#216=DATE_AND_TIME(#217,#218);
#217=CALENDAR_DATE(2009,7,5);
#218=LOCAL_TIME(0,0,0.,#219);
#219=COORDINATED_UNIVERSAL_TIME_OFFSET(0,0,.BEHIND.);
#220=AXIS2_PLACEMENT_3D('placement',#325,#253,#254);
#221=AXIS2_PLACEMENT_3D('',#326,#255,#256);
#222=AXIS2_PLACEMENT_3D('',#328,#257,#258);
#223=AXIS2_PLACEMENT_3D('',#330,#259,#260);
#224=AXIS2_PLACEMENT_3D('',#332,#261,#262);
#225=AXIS2_PLACEMENT_3D('',#333,#263,#264);
#226=AXIS2_PLACEMENT_3D('',#334,#265,#266);
#227=AXIS2_PLACEMENT_3D('',#337,#268,#269);
#228=AXIS2_PLACEMENT_3D('',#338,#270,#271);
#229=AXIS2_PLACEMENT_3D('',#340,#272,#273);
#230=AXIS2_PLACEMENT_3D('',#341,#274,#275);
#231=AXIS2_PLACEMENT_3D('',#344,#276,#277);
#232=AXIS2_PLACEMENT_3D('',#345,#278,#279);
#233=AXIS2_PLACEMENT_3D('',#347,#280,#281);
#234=AXIS2_PLACEMENT_3D('',#348,#282,#283);
#235=AXIS2_PLACEMENT_3D('',#349,#284,#285);
#236=AXIS2_PLACEMENT_3D('',#351,#286,#287);
#237=AXIS2_PLACEMENT_3D('',#353,#289,#290);
#238=AXIS2_PLACEMENT_3D('',#355,#291,#292);
#239=AXIS2_PLACEMENT_3D('',#356,#293,#294);
#240=AXIS2_PLACEMENT_3D('',#358,#295,#296);
#241=AXIS2_PLACEMENT_3D('',#359,#297,#298);
#242=AXIS2_PLACEMENT_3D('',#361,#299,#300);
#243=AXIS2_PLACEMENT_3D('',#363,#302,#303);
#244=AXIS2_PLACEMENT_3D('',#365,#304,#305);
#245=AXIS2_PLACEMENT_3D('',#366,#306,#307);
#246=AXIS2_PLACEMENT_3D('',#368,#308,#309);
#247=AXIS2_PLACEMENT_3D('',#370,#311,#312);
#248=AXIS2_PLACEMENT_3D('',#372,#313,#314);
#249=AXIS2_PLACEMENT_3D('',#373,#315,#316);
#250=AXIS2_PLACEMENT_3D('',#375,#317,#318);
#251=AXIS2_PLACEMENT_3D('',#377,#320,#321);
#252=AXIS2_PLACEMENT_3D('',#378,#322,#323);
#253=DIRECTION('axis',(0.,0.,1.));
#254=DIRECTION('refdir',(1.,0.,0.));
#255=DIRECTION('center_axis',(1.,0.,0.));
#256=DIRECTION('ref_axis',(0.,0.,-1.));
#257=DIRECTION('center_axis',(-1.,0.,0.));
#258=DIRECTION('ref_axis',(0.,-1.,1.22460635382238E-16));
#259=DIRECTION('center_axis',(0.,-1.,-1.22464679914735E-16));
#260=DIRECTION('ref_axis',(0.,-1.22464679914735E-16,1.));
#261=DIRECTION('center_axis',(1.,0.,0.));
#262=DIRECTION('ref_axis',(0.,-1.,1.22460635382238E-16));
#263=DIRECTION('center_axis',(1.,0.,0.));
#264=DIRECTION('ref_axis',(0.,-1.,1.22460635382238E-16));
#265=DIRECTION('center_axis',(1.,0.,0.));
#266=DIRECTION('ref_axis',(0.,1.,0.));
#267=DIRECTION('',(-1.,0.,0.));
#268=DIRECTION('center_axis',(1.,0.,0.));
#269=DIRECTION('ref_axis',(0.,1.,0.));
#270=DIRECTION('center_axis',(1.,0.,0.));
#271=DIRECTION('ref_axis',(0.,0.,-1.));
#272=DIRECTION('center_axis',(1.,0.,0.));
#273=DIRECTION('ref_axis',(0.,1.,0.));
#274=DIRECTION('center_axis',(1.,0.,0.));
#275=DIRECTION('ref_axis',(0.,0.,-1.));
#276=DIRECTION('center_axis',(-1.,0.,0.));
#277=DIRECTION('ref_axis',(0.,-1.,1.22460635382238E-16));
#278=DIRECTION('center_axis',(-1.,0.,0.));
#279=DIRECTION('ref_axis',(0.,-1.,1.22460635382238E-16));
#280=DIRECTION('center_axis',(0.,-1.,-1.22464679914735E-16));
#281=DIRECTION('ref_axis',(0.,-1.22464679914735E-16,1.));
#282=DIRECTION('center_axis',(1.,0.,0.));
#283=DIRECTION('ref_axis',(0.,-1.,1.22460635382238E-16));
#284=DIRECTION('center_axis',(1.,0.,0.));
#285=DIRECTION('ref_axis',(0.,1.,0.));
#286=DIRECTION('center_axis',(1.,0.,0.));
#287=DIRECTION('ref_axis',(0.,1.,0.));
#288=DIRECTION('',(-1.,0.,0.));
#289=DIRECTION('center_axis',(-1.,0.,0.));
#290=DIRECTION('ref_axis',(0.,0.,1.));
#291=DIRECTION('center_axis',(1.,0.,0.));
#292=DIRECTION('ref_axis',(0.,1.,0.));
#293=DIRECTION('center_axis',(1.,0.,0.));
#294=DIRECTION('ref_axis',(0.,0.,-1.));
#295=DIRECTION('center_axis',(1.,0.,0.));
#296=DIRECTION('ref_axis',(0.,1.,0.));
#297=DIRECTION('center_axis',(1.,0.,0.));
#298=DIRECTION('ref_axis',(0.,1.,0.));
#299=DIRECTION('center_axis',(1.,0.,0.));
#300=DIRECTION('ref_axis',(0.,1.,0.));
#301=DIRECTION('',(-1.,0.,0.));
#302=DIRECTION('center_axis',(-1.,0.,0.));
#303=DIRECTION('ref_axis',(0.,0.,1.));
#304=DIRECTION('center_axis',(1.,0.,0.));
#305=DIRECTION('ref_axis',(0.,1.,0.));
#306=DIRECTION('center_axis',(1.,0.,0.));
#307=DIRECTION('ref_axis',(0.,1.,0.));
#308=DIRECTION('center_axis',(1.,0.,0.));
#309=DIRECTION('ref_axis',(0.,1.,0.));
#310=DIRECTION('',(-1.,0.,0.));
#311=DIRECTION('center_axis',(1.,0.,0.));
#312=DIRECTION('ref_axis',(0.,0.,-1.));
#313=DIRECTION('center_axis',(1.,0.,0.));
#314=DIRECTION('ref_axis',(0.,1.,0.));
#315=DIRECTION('center_axis',(1.,0.,0.));
#316=DIRECTION('ref_axis',(0.,1.,0.));
#317=DIRECTION('center_axis',(1.,0.,0.));
#318=DIRECTION('ref_axis',(0.,1.,0.));
#319=DIRECTION('',(-1.,0.,0.));
#320=DIRECTION('center_axis',(-1.,0.,0.));
#321=DIRECTION('ref_axis',(0.,0.,1.));
#322=DIRECTION('center_axis',(1.,0.,0.));
#323=DIRECTION('ref_axis',(0.,1.,0.));
#324=DIRECTION('',(-1.,0.,0.));
#325=CARTESIAN_POINT('',(0.,0.,0.));
#326=CARTESIAN_POINT('Origin',(7.25,0.,0.));
#327=CARTESIAN_POINT('',(7.5,-5.81707229594993E-16,4.75));
#328=CARTESIAN_POINT('Origin',(7.5,0.,0.));
#329=CARTESIAN_POINT('',(7.25,-6.12323399573677E-16,5.));
#330=CARTESIAN_POINT('Origin',(7.25,-5.81707229594993E-16,4.75));
#331=CARTESIAN_POINT('',(7.25,-5.,-6.12323399573677E-16));
#332=CARTESIAN_POINT('Origin',(7.25,0.,0.));
#333=CARTESIAN_POINT('Origin',(7.25,0.,0.));
#334=CARTESIAN_POINT('Origin',(6.3,0.,0.));
#335=CARTESIAN_POINT('',(5.1,-5.,-6.12323399573677E-16));
#336=CARTESIAN_POINT('',(6.3,-5.,-6.12323399573677E-16));
#337=CARTESIAN_POINT('Origin',(5.1,0.,0.));
#338=CARTESIAN_POINT('Origin',(7.5,3.75,0.));
#339=CARTESIAN_POINT('',(7.5,-2.5,-3.06161699786838E-16));
#340=CARTESIAN_POINT('Origin',(7.5,0.,0.));
#341=CARTESIAN_POINT('Origin',(-7.25,0.,0.));
#342=CARTESIAN_POINT('',(-7.25,-6.12323399573677E-16,5.));
#343=CARTESIAN_POINT('',(-7.25,-5.,-6.12323399573677E-16));
#344=CARTESIAN_POINT('Origin',(-7.25,0.,0.));
#345=CARTESIAN_POINT('Origin',(-7.25,0.,0.));
#346=CARTESIAN_POINT('',(-7.5,-5.81707229594993E-16,4.75));
#347=CARTESIAN_POINT('Origin',(-7.25,-5.81707229594993E-16,4.75));
#348=CARTESIAN_POINT('Origin',(-7.5,0.,0.));
#349=CARTESIAN_POINT('Origin',(-6.3,0.,0.));
#350=CARTESIAN_POINT('',(-5.1,-5.,-6.12323399573677E-16));
#351=CARTESIAN_POINT('Origin',(-5.1,0.,0.));
#352=CARTESIAN_POINT('',(-6.3,-5.,-6.12323399573677E-16));
#353=CARTESIAN_POINT('Origin',(-7.5,3.75,0.));
#354=CARTESIAN_POINT('',(-7.5,-2.5,-3.06161699786838E-16));
#355=CARTESIAN_POINT('Origin',(-7.5,0.,0.));
#356=CARTESIAN_POINT('Origin',(-5.1,4.9,0.));
#357=CARTESIAN_POINT('',(-5.1,-4.8,-5.87830463590729E-16));
#358=CARTESIAN_POINT('Origin',(-5.1,0.,0.));
#359=CARTESIAN_POINT('Origin',(-4.55,0.,0.));
#360=CARTESIAN_POINT('',(-4.,-4.8,-5.87830463590729E-16));
#361=CARTESIAN_POINT('Origin',(-4.,0.,0.));
#362=CARTESIAN_POINT('',(-4.55,-4.8,-5.87830463590729E-16));
#363=CARTESIAN_POINT('Origin',(-4.,4.9,0.));
#364=CARTESIAN_POINT('',(-4.,-5.,-6.12323399573677E-16));
#365=CARTESIAN_POINT('Origin',(-4.,0.,0.));
#366=CARTESIAN_POINT('Origin',(0.,0.,0.));
#367=CARTESIAN_POINT('',(4.,-5.,-6.12323399573677E-16));
#368=CARTESIAN_POINT('Origin',(4.,0.,0.));
#369=CARTESIAN_POINT('',(0.,-5.,-6.12323399573677E-16));
#370=CARTESIAN_POINT('Origin',(4.,4.9,0.));
#371=CARTESIAN_POINT('',(4.,-4.8,-5.87830463590729E-16));
#372=CARTESIAN_POINT('Origin',(4.,0.,0.));
#373=CARTESIAN_POINT('Origin',(4.55,0.,0.));
#374=CARTESIAN_POINT('',(5.1,-4.8,-5.87830463590729E-16));
#375=CARTESIAN_POINT('Origin',(5.1,0.,0.));
#376=CARTESIAN_POINT('',(4.55,-4.8,-5.87830463590729E-16));
#377=CARTESIAN_POINT('Origin',(5.1,4.9,0.));
#378=CARTESIAN_POINT('Origin',(0.,0.,0.));
#379=CARTESIAN_POINT('',(0.,-2.5,-3.06161699786838E-16));
#380=UNCERTAINTY_MEASURE_WITH_UNIT(LENGTH_MEASURE(0.01),#384,
'DISTANCE_ACCURACY_VALUE',
'Maximum model space distance between geometric entities at asserted c
onnectivities');
#381=UNCERTAINTY_MEASURE_WITH_UNIT(LENGTH_MEASURE(0.01),#384,
'DISTANCE_ACCURACY_VALUE',
'Maximum model space distance between geometric entities at asserted c
onnectivities');
#382=(
GEOMETRIC_REPRESENTATION_CONTEXT(3)
GLOBAL_UNCERTAINTY_ASSIGNED_CONTEXT((#380))
GLOBAL_UNIT_ASSIGNED_CONTEXT((#384,#386,#387))
REPRESENTATION_CONTEXT('','3D')
);
#383=(
GEOMETRIC_REPRESENTATION_CONTEXT(3)
GLOBAL_UNCERTAINTY_ASSIGNED_CONTEXT((#381))
GLOBAL_UNIT_ASSIGNED_CONTEXT((#384,#386,#387))
REPRESENTATION_CONTEXT('','3D')
);
#384=(
LENGTH_UNIT()
NAMED_UNIT(*)
SI_UNIT(.MILLI.,.METRE.)
);
#385=(
LENGTH_UNIT()
NAMED_UNIT(*)
SI_UNIT(.CENTI.,.METRE.)
);
#386=(
NAMED_UNIT(*)
PLANE_ANGLE_UNIT()
SI_UNIT($,.RADIAN.)
);
#387=(
NAMED_UNIT(*)
SI_UNIT($,.STERADIAN.)
SOLID_ANGLE_UNIT()
);
#388=SHAPE_DEFINITION_REPRESENTATION(#389,#390);
#389=PRODUCT_DEFINITION_SHAPE('',$,#392);
#390=SHAPE_REPRESENTATION('',(#220),#382);
#391=PRODUCT_DEFINITION_CONTEXT('part definition',#396,'design');
#392=PRODUCT_DEFINITION('leer','00012146',#393,#391);
#393=PRODUCT_DEFINITION_FORMATION('',$,#398);
#394=PRODUCT_RELATED_PRODUCT_CATEGORY('00012146','00012146',(#398));
#395=APPLICATION_PROTOCOL_DEFINITION('international standard',
'automotive_design',2009,#396);
#396=APPLICATION_CONTEXT(
'Core Data for Automotive Mechanical Design Process');
#397=PRODUCT_CONTEXT('part definition',#396,'mechanical');
#398=PRODUCT('leer','00012146',
'Miniatur Linearlager Geschlossen beidseitig abgedichtet',(#397));
#399=PRESENTATION_STYLE_ASSIGNMENT((#400));
#400=SURFACE_STYLE_USAGE(.BOTH.,#403);
#401=SURFACE_STYLE_RENDERING_WITH_PROPERTIES($,#407,(#402));
#402=SURFACE_STYLE_TRANSPARENT(0.);
#403=SURFACE_SIDE_STYLE('',(#404,#401));
#404=SURFACE_STYLE_FILL_AREA(#405);
#405=FILL_AREA_STYLE('',(#406));
#406=FILL_AREA_STYLE_COLOUR('',#407);
#407=COLOUR_RGB('',0.87843137254902,0.874509803921569,0.858823529411765);
ENDSEC;
END-ISO-10303-21;
